» » »

Darlene Zschech, Deeply In Love Chords (ver.3)

Artists:  A B C D E F G H I J K L M N O P Q R S T U V W X Y Z # 

Deeply In Love Chords (ver.3)

Darlene Zschech Tabs
 Rating:
4/5 (4 votes)
Deeply In Love lessons Tabs too difficult? Try these video lessons and learn fast
                HEY GUYS!
This is my first TAB.  The intro i learned from a friend.  
The rest of the song is how i play it at church.  
I hope it helps. :D

TUNING: Standard EADGBe

CHORDS USED:
   Em7add2   Cadd9   Gsus2  Gsus2(maj7)  Dsus4   D
e|----3----|---3---|---3---|-----3-----|---3---|-2-|
B|----3----|---3---|---3---|-----3-----|---3---|-3-|
G|----0----|---0---|---0---|-----0-----|---2---|-2-|
D|----2----|---2---|---0---|-----0-----|---0---|-0-|
A|----2----|---3---|---0---|-----0-----|---x---|-x-|
E|----0----|---0---|---3---|-----2-----|---x---|-x-|



>>> INTRO:
Em7add2 Cadd9 D Gsus2 Gsus2(maj7) Em7add2 Cadd9 Dsus4 D

e|--33~---|---2h3-0-|0----0-3~|----3~--|2~------|
B|--------|---------|---------|--------|--------|
G|--------|-2~------|---------|--------|--------|
D|-2------|0--------|----2----|--------|--------|
A|2--3~---|---------|-0h2-----|----0~--|0~------|
E|--------|-------3-|2------3~|--------|--------|
 |- - - * |- -  - * |-  - - * |- - - * |- - - * |


>>> VERSE 1: intro Riff

In  my life You hear me say,  I love you  

How do I show you it`s true

hear my heart, it longs for more of you..

I`ve fallen deeply in love with you..


>>> CHORUS:

Em7add2  Cadd9  D        Gsus2   Gsus2(maj7)
You     have   stolen my heart


Em7add2      Cadd9     Dsus4  D
        I`m captivated by    you

Em7add2  Cadd9       D   Em7add2-D-Cadd9
Never   will you and I part
   
              D                 
I`ve fallen deeply in love with you

Em7add2 Cadd9 D Gsus2 Gsus2(maj7) Em7add2 Cadd9 Dsus4 D


>>> VERSE 2

Em7add2         Cadd9      D       Gsus2 Gsus2(maj7) 
        You and I,    together for ever

Em7add2      Cadd9         Dsus4 D
Nothing can, stand in the way

   Em7add2  Cadd9      D       
My love for you, grows stronger
    
     Gsus2  Gsus2(maj7) Em7add2
each        new        day.

      Cadd9   Dsus4    D       
I`ve fallen deeply in love with you...


>>> CHORUS: x2

Em7add2  Cadd9  D        Gsus2   Gsus2(maj7)
You     have   stolen my heart


Em7add2      Cadd9     Dsus4  D
        I`m captivated by    you

Em7add2  Cadd9       D   Em7add2-D-Cadd9
Never   will you and I part
   
              D                 
I`ve fallen deeply in love with you...


>>> OUTRO:

e|--33~---|---2h3-0-|0----0-3~|----3~--|2~------|
B|--------|---------|---------|--------|--------|
G|--------|-2~------|---------|--------|--------|
D|-2------|0--------|----2----|--------|--------|
A|2--3~---|---------|-0h2-----|----0~--|0~------|
E|--------|-------3-|2------3~|--------|--------|
 |- - - * |- -  - * |-  - - * |- - - * |- - - * |
            
Submit corrections

comments powered by Disqus
↑ Back to top | Darlene Zschech Chords for Deeply In Love. Lyrics for acoustic guitar and electric guitar. Tablatures and chords are parodies/interpretations of the original songs. You may use it for private study, scholarship, research or language learning purposes only