>
 >
Growing On Me 1

Growing On Me 1 Guitar Tabs

Darkness - Growing On Me 1 chords, tabs, tablatures, lyrics

Guitar lessons | Add/correct | Request | Top 50 tabs Artists:  A B C D E F G H I J K L M N O P Q R S T U V W X Y Z 0-9

Growing On Me 1 Guitar Tabs – Darkness

CD, Sheet music, Poster

Do you like Growing On Me 1? Share with your friends now
Bass TabsBass Tabs v2TabsTabs v2Tabs v3Tabs v4Tabs v5Tabs v6Tabs v7Tabs v8
The Darkness - Growing On Me.

*This version is in standard, not dropped to D*


Intro:

E|---|-5-----5-------|-------------0---|-5-----5-------|
B|---|---3-----3---3-|-------3-------3-|---3-----3---3-|
G|-2-|-----2-----2---|-----2---2-------|-----2-----2---|
D|-0-|---------------|---0-------0-----|---------------|
A|---|---------------|-4---------------|---------------|
E|---|---------------|-----------------|---------------|


E|-------------0---|-5-----5-------|-------------0---|
B|-------3-------3-|---3-----3---3-|-------3-------3-|
G|-----2---2-------|-----2-----2---|-----2---2-------|
D|---0-------0-----|---------------|---0-------0-----|
A|-4---------------|---------------|-4---------------|
E|-----------------|---------------|-----------------|

E|------------|-------------------|-------|
B|------------|----------------3--|-------|
G|-2--2----2--|----------------2--|-------|
D|-2--2----2--|----------------2--|-------|
A|-0--0----0--|-0-5-5-0-5-5-0--0--|-------|
E|------------|---3-2---3-2-------|--12--|


Verse:

Verse Riff 1.
E|----------------|---|----------------|---------------|
B|----------------|---|----------------|---------------|
G|----------------|---|----------------|---------------|
D|----0-0-7-7-9-9-|---|----0-0-7-7-9-9-|-7--7--------0-|
A|----0-0-7-7-9-9-|---|----0-0-7-7-9-9-|-7--7--5-5-5-0-|
E|--------5-5-7-7-|---|--------5-5-7-7-|-5--5--3-3-2---|

Verse Riff 2.
E|----------------|---------|----------------|-3-3-3-3--2-2--|
B|----------------|---------|----------------|-3-3-3-3--3-3--|
G|----------------|------2--|-2--2---2--2--2-|-2-2-2-2--2-2--|
D|----0-0-7-7-9-9-|------2--|-2--2---2--2--2-|-0-0-0-0--0-0--|
A|----0-0-7-7-9-9-|------0--|-0--0---0--0--0-|---------------|
E|--------5-5-7-7-|---------|----------------|---------------|

Verse Riff 3 (same as Riff 1).
E|----------------|---|----------------|---------------|
B|----------------|---|----------------|---------------|
G|----------------|---|----------------|---------------|
D|----0-0-7-7-9-9-|---|----0-0-7-7-9-9-|-7--7--------0-|
A|----0-0-7-7-9-9-|---|----0-0-7-7-9-9-|-7--7--5-5-5-0-|
E|--------5-5-7-7-|---|--------5-5-7-7-|-5--5--3-3-2---|

Verse Riff 4.
E|----------------|---------|------------|--------------|
B|----------------|---------|------------|--------------|
G|----------------|------2--|-2-2--2-2-2-|--------------|
D|----0-0-7-7-9-9-|------2--|-2-2--2-2-2-|-0-2---2----4-|
A|----0-0-7-7-9-9-|------0--|-0-0--0-0-0-|-0-2-0-2------|
E|--------5-5-7-7-|---------|------------|---0---0--2---|


Bridge 1:

Kind of like the Intro really.
E|-5-----5-------|-------------0---|-5-----5-------|-------------0---|
B|---3-----3---3-|-------3---------|---3-----3---3-|-------3-------3-|
G|-----2-----2---|-----2---2-----2-|-----2-----2---|-----2---2-------|
D|---------------|---0-------0-----|---------------|---0-------0-----|
A|---------------|-4---------------|---------------|-4---------------|
E|---------------|-----------------|---------------|-----------------|

E|-5-----5-------|-------------0---|-----------|----------------|
B|---3-----3---3-|-------3---------|-----------|----------------|
G|-----2-----2---|-----2---2-----2-|-2--2-2--2-|--2-2-2-2-------|
D|---------------|---0-------0-----|-2--2-2--2-|--2-2-2-2-------|
A|---------------|-4---------------|-0--0-0--0-|--0-0-0-0-------|
E|---------------|-----------------|-----------|-----------12--|


Chorus:

E|--------------------|--------------------|
B|--------------------|--------------------|
G|--------------------|--------7--7---7--7-|
D|-7---7--5--5---5--5-|-7---7--7--7---7--7-|
A|-7---7--5--5---5--5-|-7---7--5--5---5--5-|
E|-5---5--3--3---3--3-|-5---5--------------|

E|--------------------|--------------------|
B|--------------------|--------------------|
G|--------------------|--------7--7---7----|
D|-9---9--5--5---5--5-|-7---7--7--7---7----|
A|-9---9--5--5---5--5-|-7---7--5--5---5----|
E|-7---7--3--3---3--3-|-5---5--------------|

E|--------------------|--------------------|
B|--------------------|--------------------|
G|--------------------|--------7--7---7--7-|
D|-7---7--5--5---5--5-|-7---7--7--7---7--7-|
A|-7---7--5--5---5--5-|-7---7--5--5---5--5-|
E|-5---5--3--3---3--3-|-5---5--------------|

E|--------------------|------------------|
B|--------------------|------------------|
G|--------------------|------------------|
D|-7---7--7--7---7--7-|------------------|
A|-7---7--7--7---7--7-|-0-5-5-0-5-5-0-0--|
E|-5---5--5--5---5--5-|---3-2---3-2------|


Verse:

(see riffs above)


Bridge 1:

(see above)


Chorus:

(as above)

Bridge 2:

Muted a little.
E|-----|---------------|------------------|-----------------|-----------------|
B|-----|-8---8-8-7-7---|-5---5---7-7-7-7--|---8-8-8-8-7-7---|-5---5---7-------|
G|-----|-7---7-7-7-7---|-6---6---7-7-7-7--|---7-7-7-7-7-7---|-6---6---7-------|
D|--0--|-5---5-5-7-7---|-7---7---7-7-7-7--|---5-5-5-5-7-7---|-7---7---7-----5-|
A|--0--|-5---5-5-5-5-5-|-5-5-5-5-5-5-5-5--|-5-5-5-5-5-5-5-5-|-5-0-5-5-5-5-0-5-|
E|-----|---------------|------------------|-----------------|---------------3-|


Solo:
                      1   2   3    4                    slow/gradual bend
E|------------------|----------------------|--------------------------------|
B|------------------|----------------------|--------------------------------|
G|------------------|----------------------|--------------------------------|
D|------------------|--------------12-12~~-|---14--12--14b(15)(15)(16)(16)--|
A|--5~~~~~~~~~~~~~--|-7-5-7-5-714---------|--------------------------------|
E|------------------|----------------------|--------------------------------|

   1        2      3       4
E|----------------------------------|------------------------------|
B|----------------------------------|---17b(19)----17b(19)~~~~~~---|
G|-11-12-14-12-11-------------------|------------------------------|
D|----------------14b16r14~~~~~~~~~-|------------------------------|
A|----------------------------------|------------------------------|
E|----------------------------------|------------------------------|

E|--------------------------------------|
B|--19/17----15-17-17b(19)r(17)-15~~~~--|
G|--------16----------------------------|
D|--------------------------------------|
A|--------------------------------------|
E|--------------------------------------|

E|-17b(19)~~~~~~~~~--------17---15---14-15-14-|-12~~~~~~~~~~~-------12--|
B|--------------------------------------------|--------------------------|
G|--------------------------------------------|--------------------------|
D|--------------------------------------------|--------------------------|
A|--------------------------------------------|--------------------------|
E|--------------------------------------------|--------------------------|


Chorus:

(as above)

etc


Andy J. 2003.





Comments


Popular Darkness tabs & chords
Black Shuck 2 Tabs
Curse Of The Tollund Man Intro Tabs
Friday Night Tabs
Girlfriend Tabs
Growing On Me 2 Tabs
Growing On Me 5 Tabs
Growing On Me 8 Tabs
I Believe In A Thing Called Love 11 Tabs
I Believe In A Thing Called Love 12 Tabs
Wanker Tabs


Song lyrics



↑ Back to top | Tablatures and chords are parodies/interpretations of the original songs. You may use it for private study, scholarship, research or language learning purposes only
© 2014 AZChords.com Contact us | Privacy policy | DMCA | Add/correct tabs | Request tabs | Top 50 tabs