» » »

Darkness, Growing On Me Bass tabs (ver.2)

Artists:  A B C D E F G H I J K L M N O P Q R S T U V W X Y Z # 

Growing On Me Bass tabs (ver.2)

Darkness Tabs
Rating:
3/5 (8 votes)
Growing On Me lessons Tabs too difficult? Try these video lessons and learn fast
                The Darkness
Growing on me

* Pretty straight forward song, sorry if the tab is confusing.

s = slide
~ = let ring

guitar intro (x2) then bass joins in

   Intro
g|-------------------------|----------------|
d|-5-5-5-5-4-2-0-----------|----------------|
a|---------------0-0-5-7-0-|----------------| x1
d|-------------------------|-5-4-2--5-4-2-0-|

   Verse
g|--------------|---------------------------|
d|--------------|---------------------------|
a|--------------|---------------------------|
d|-0-0-7-7-9-9s-|-0-0-7-7-9-9-9-7-7-5-5-4s0-|

g|------------------------|---------------------|
d|------------------------|---------------------|
a|------------------------|---------------------|
d|-0-0-7-7-9-9-9-9-9-9-9-9|-7-7-7-5-4-2-5-4-2-0-|

   Pre chorus 
g|-------------------------|     g|-------|
d|-5-5-5-5-4-2-0-----------|     d|-------|
a|---------------0-0-5-7-5-| x3  a|-0-0-0-| x1
d|-------------------------|     d|-------| 

   Chorus (and solo 2)
g|-------------------------|-------------------------|-------------------------
d|-------------------------|-------------------------|-------------------------
a|-----------------5-5-5-5-|-------------------------|-----------------5-5-5-5-
d|-4-4-5-5-5-5-7-7---------|-9-9-5-5-5-5-7-7-0-0-0-0-|-4-4-5-5-5-5-7-7---------

g|--------------------|
d|--------------------|
a|--------------------|
d|-7-7-7-5-4-2-5-4-2--|

  Pre solo
g|----|
d|----|
a|----|
d|-0--|

  Solo 1
g|-------------------------|-------------------------|
d|-------------------------|-------------------------|
a|-----------------5-5-5-5-|-------------------------|
d|-4-4-5-5-5-5-7-7---------|-9-9-5-5-5-5-7-7-0-0-0-0-|

g|-------------------------|------|
d|-------------------------|------|
a|-----------------5-5-5-5-|------|
d|-4-4-5-5-5-5-7-7---------|-7~~~-|

**song order**
Intro x 1
Verse x 2
Pre chorus x 1
Chorus x 1
Verse x 1
Pre chorus x 1
chorus x 1
Pre solo x 1 
Solo 1 x 1
Chorus x 1
Solo 2 (repeat until fade)
            
Submit corrections

comments powered by Disqus
↑ Back to top | Darkness Bass for Growing On Me. Lyrics for acoustic guitar and electric guitar. Tablatures and chords are parodies/interpretations of the original songs. You may use it for private study, scholarship, research or language learning purposes only