>
 >
Growing On Me

Growing On Me Guitar Tabs

Darkness - Growing On Me chords, tabs, tablatures, lyrics

Guitar lessons | Add/correct | Request | Top 50 tabs Artists:  A B C D E F G H I J K L M N O P Q R S T U V W X Y Z 0-9

Growing On Me Guitar Tabs – Darkness

CD, Sheet music, Poster

Do you like Growing On Me? Share with your friends now
Bass TabsBass Tabs v2TabsTabs v2Tabs v3Tabs v4Tabs v5Tabs v6Tabs v7Tabs v8
PROPS GO TO: Dave 

This Song is Exellent! I Have Taken some time over this and it is nearly Perfect! The Solo is a Quite easy, although I dont think the tab for it is pefect!
Enjoy!

Drop D

Notation Legend
b=Bend
r=Release
h=Hammer-On
p=Pull-Off
/=Slide
~=Vibrato/Let Ring

The Darkness


Intro 
E|---------5----------5------------------------------0---------| 
B|-------------3----------3----------------------3-----3-------| 
G|---2------------2----------2--------------2------2-----------| 
D|---0------------------------------------0---0-----------0----| 
A|-------------------------------------4-----------------------| 
D|-------------------------------------------------------------| 
  Repeat 3 times


E|---5----------5-------------------------------0---------------------------------3--| 
B|-------3----------3-----------------------3-----3-------------------------------2--| 
G|-----------2----------2--------------2------2----------2--2--2------------------2--| 
D|-----------------------------------0---0---------------2--2--2----5-4-0-5-4--2--0--| 
A|---------------------------------4---------------------0--0--0----5-4-0-5-4--2--0--| 
D|------------------------------------------------------------------5-4-0-5-4--2--0--| 

 
Verse
E|----------------------------------------------------------------| 
B|----------------------------------------------------------------| 
G|----------------------------------------------------------------| 
D|----7-7-0-7/9-9------7-7-0-7/9-9--7--7--5-5--4-0----7-7-0-7/9-9-| 
A|----7-7-0-7/9-9------7-7-0-7/9-9--7--7--5-5--4-0----7-7-0-7/9-9-| 
D|----7-7-0-7/9-9------7-7-0-7/9-9--7--7--5-5--4-0----7-7-0-7/9-9-| 

E|--------------------5-5-5-5-------------------------------| 
B|--------------------3-3-3-3-------------------------------| 
G|---2--2--2----------2-2-2-2-------------------------------| 
D|---2--2--2------------------------------------------------| 
A|---0--0--0------------------------------------------------| 
D|----------------------------------------------------------| 

E|----------------------------------------------------------------| 
B|----------------------------------------------------------------| 
G|----------------------------------------------------------------| 
D|----7-7-0-7/9-9------7-7-0-7/9-9--7--7--5-5--4-0----7-7-0-7/9-9-| 
A|----7-7-0-7/9-9------7-7-0-7/9-9--7--7--5-5--4-0----7-7-0-7/9-9-| 
D|----7-7-0-7/9-9------7-7-0-7/9-9--7--7--5-5--4-0----7-7-0-7/9-9-| 


E|--------------------| 
B|--------------------| 
G|--2-2-2-2-----------| 
D|--2-2-2-2-----------| 
A|--0-0-0-0-----------| 
D|--------------------| 

Pre-Chorus 
E|---5------5-----------------------0--------5-----5------------------| 
B|-----3------3-----------------3-----3--------3-----3----------------| 
G|-------2------2-----------2-----2--------------2-----2--------------| 
D|------------------------0---0-----------0---------------------------| 
A|----------------------4---------------------------------------------| 
D|--------------------------------------------------------------------| 

E|------------------0--------------------------| 
B|--------------3-----3------------------------| 
G|----------2-----2------------------2--2-2----| 
D|--------0---0-----------0----------2--2-2----| 
A|------4----------------------------0--0-0----| 
D|---------------------------------------------| 

Chorus 
E|---------------------------------------------------------------------| 
B|---------------------------------------------------------------------| 
G|---------------------------------------------------------------------| 
D|--4-4-4-4--5-5-5-5--7-7-7-7--0-0-0-0--9-9-9--0-0-0-0--7-7-7-7--------| 
A|--4-4-4-4--5-5-5-5--7-7-7-7--0-0-0-0--9-9-9--0-0-0-0--7-7-7-7--------| 
D|--4-4-4-4--5-5-5-5--7-7-7-7--0-0-0-0--9-9-9--0-0-0-0--7-7-7-7--------| 


E|------------------------------------------------------2-------------------| 
B|------------------------------------------------------3-------------------| 
G|------------------------------------------------------2-------------------| 
D|--4-4-4-4--5-5-5-5--7-7-7-7--0-0-0-0--7--5-4-0-5-4-2--0-------------------| 
A|--4-4-4-4--5-5-5-5--7-7-7-7--0-0-0-0--7--5-4-0-5-4-2--0-------------------| 
D|--4-4-4-4--5-5-5-5--7-7-7-7--0-0-0-0--7--5-4-0-5-4-2--0-------------------| 


E|----5-5-5-5-5-5-5-5-5-5-5-5-5-5-5-5----|
B|----5-5-5-5-5-5-5-5-5-5-5-5-5-5-5-5----|
G|----2-2-2-2-2-2-2-2-2-2-2-2-2-2-2-2----|
D|----2-2-2-2-2-2-2-2-2-2-2-2-2-2-2-2----|
A|----0-0-0-0-0-0-0-0-0-0-0-0-0-0-0-0----|
D|---------------------------------------|

Middle section
E|---------------------------------------| 
B|-----8-8-8-8--7-7-7--5-5-5--7-7-7------| 
G|-----7-7-7-7--7-7-7--7-7-7--7-7-7------| 
D|-----7-7-7-7--7-7-7--7-7-7--7-7-7------| 
A|---------------------------------------| 
D|---------------------------------------| 


Solo 1
E|--------------------------------------------------------------| 
B|--------------------------------------------------------------| 
G|--------------------------------------------------------------| 
D|------------------------------------------------12--12~~~~~---| 
A|---5---------5-5-5---5-5-5--7--5--7--5--7/14------------------| 
E|--------------------------------------------------------------| 

E|--------------------------------------------------------------| 
B|-----------------------------------------------------0--17b19-| 
G|------------------------------11-12-14-12-11-9-9/11-----------| 
D|---14--12--14---16--------------------------------------------| 
A|--------------------------------------------------------------| 
D|--------------------------------------------------------------| 

E|----------------------------------17b19vv-17-15-14h15p14p12---|
B|-19-19-19-19r17-17-17h9p17p15---------------------------------| 
G|--------------------------------------------------------------| 
D|--------------------------------------------------------------| 
A|--------------------------------------------------------------| 
D|--------------------------------------------------------------| 


Solo 2 
E|-----------------------------------------------------------------|
B|-----------------------------------------------------------------| 
G|-----------------------------------------------------------------| 
D|------------------------12-11-12-11-12p11p9-14-14-14b16r14b16r14-| 
A|--5-5-5-9-7-5-7/9-9-7h9------------------------------------------| 
D|-----------------------------------------------------------------| 

E|----------------------------------------------------------------| 
B|-------------------------------------15-14-15-14-15-14-15p14p12-| 
G|---------------11----------------11-----------------------------| 
D|------------12----14-12-14-12h14--------------------------------| 
A|----------------------------------------------------------------|
D|----------------------------------------------------------------| 

E|-----------------------17----17----17----17------------------| 
B|-15b17-17-17-17r-17b19----19----19----19---------------------| 
G|-------------------------------------------------------------| 
D|-------------------------------------------------------------| 
A|-------------------------------------------------------------| 
D|-------------------------------------------------------------| 


Dave





Comments


Popular Darkness tabs & chords
I Believe In A Thing Called Love 2 Bass Tabs
Thing Called Love 1 Bass Tabs
Black Shuck 1 Tabs
Giving Up Tabs
Growing On Me 6 Tabs
I Beleive In A Thing Called Love Tabs
Love Is Only A Feeling 5 Tabs
Love On The Rocks With No Ice 1 Tabs
Nothings Gonna Stop Us Tabs
One Way Ticket 2 Tabs


Song lyrics



↑ Back to top | Tablatures and chords are parodies/interpretations of the original songs. You may use it for private study, scholarship, research or language learning purposes only
© 2014 AZChords.com Contact us | Privacy policy | DMCA | Add/correct tabs | Request tabs | Top 50 tabs