>
 >
Eclipse 1

Eclipse 1 Bass Tabs

Darkest Hour - Eclipse 1 chords, tabs, tablatures, lyrics

Guitar lessons | Add/correct | Request | Top 50 tabs Artists:  A B C D E F G H I J K L M N O P Q R S T U V W X Y Z 0-9

Eclipse 1 Bass Tabs – Darkest Hour

CD, Sheet music, Poster

Do you like Eclipse 1? Share with your friends now
Bass TabsBass Tabs v2Bass Tabs v3Tabs
i suggest a 6 string bass for this song, but if u cant get one...for a four string bass...tune the e into a low c, then the a to a g then the d to a c and the g to a f...itll sound identical
                                                             
D||---|--------------------------|--------------------------|
A||---|--------------------------|--------------------------|
F||---|--------------------------|--------------------------|
C||---|--------7-7-7-5-5-5-8-8-8-|--------8-8-8-7-7-7-5-5-5-|
G||---|--3-3-3-------------------|--1-1-1-------------------|
C||---|--------------------------|--------------------------|


                                                      
--------------------------|--------------------------|
--------------------------|--------------------------|
--------------------------|--------------------------|
--------7-7-7-------7-7-7-|--------3-3-3-5-5-5-7-7-7-|
--3-3-3-------4-4-4-------|--------------------------|
--------------------------|--0-0-0-------------------|


                                                      
--------------------------|--------------------------|
--------------------------|--------------------------|
--------------------------|--------------------------|
--------7-7-7-5-5-5-8-8-8-|--------8-8-8-7-7-7-5-5-5-|
--3-3-3-------------------|--1-1-1-------------------|
--------------------------|--------------------------|


                                                      
--------------------------|--------------------------|
--------------------------|--------------------------|
--------------------------|--------------------------|
--------7-7-7-------7-7-7-|--------3-3-3-5-5-5-7-7-7-|
--3-3-3-------4-4-4-------|--------------------------|
--------------------------|--0-0-0-------------------|


                                                      
--------------------------|--------------------------|
--------------------------|--------------------------|
--------------------------|--------------------------|
--------7-7-7-5-5-5-8-8-8-|--------8-8-8-7-7-7-5-5-5-|
--3-3-3-------------------|--1-1-1-------------------|
--------------------------|--------------------------|


                                                      
--------------------------|--------------------------|
--------------------------|--------------------------|
--------------------------|--------------------------|
--------7-7-7-------7-7-7-|--------3-3-3-5-5-5-7-7-7-|
--3-3-3-------4-4-4-------|--------------------------|
--------------------------|--0-0-0-------------------|


                                                                               
--------------------------|--------------------------|------------------------|
--------------------------|--------------------------|------------------------|
--------------------------|--------------------------|------------------------|
--------7-7-7-5-5-5-8-8-8-|--------8-8-8-7-7-7-5-5-5-|------------------------|
--3-3-3-------------------|--1-1-1-------------------|--3--3-x-x-x-4--4-x-x-x-|
--------------------------|--------------------------|------------------------|


                                                                           
------------------------|------------------------|------------------------|
------------------------|------------------------|------------------------|
-------------------0--2-|--------2--2-------2--2-|--------2--3-------2--3-|
--------3--5------------|------------------------|------------------------|
------------------------|--3-3-3------3-3-3------|--1-1-1------1-1-1------|
--0-0-0------0-0-0------|------------------------|------------------------|


                                                                             
--------------------------|------------------------|------------------------|
--------------------------|------------------------|------------------------|
--------2-2-2-------2-2-2-|-------------------0--2-|--------2--2-------2--2-|
--------------------------|--------3--5------------|------------------------|
--3-3-3-------4-4-4-------|------------------------|--3-3-3------3-3-3------|
--------------------------|--0-0-0------0-0-0------|------------------------|


                                                                             
------------------------|--------------------------|------------------------|
------------------------|--------------------------|------------------------|
--------2--3-------2--3-|--------2-2-2-------2-2-2-|-------------------0--2-|
------------------------|--------------------------|--------3--5------------|
--1-1-1------1-1-1------|--3-3-3-------4-4-4-------|------------------------|
------------------------|--------------------------|--0-0-0------0-0-0------|


                                                                             
------------------------|------------------------|--------------------------|
------------------------|------------------------|--------------------------|
--------2--2-------2--2-|--------2--3-------2--3-|--------2-2-2-------2-2-2-|
------------------------|------------------------|--------------------------|
--3-3-3------3-3-3------|--1-1-1------1-1-1------|--3-3-3-------4-4-4-------|
------------------------|------------------------|--------------------------|


                                                                           
------------------------|------------------------|------------------------|
------------------------|------------------------|------------------------|
-------------------0--2-|--------2--2-------2--2-|--------2--3-------2--3-|
--------3--5------------|------------------------|------------------------|
------------------------|--3-3-3------3-3-3------|--1-1-1------1-1-1------|
--0-0-0------0-0-0------|------------------------|------------------------|


                                                                               
------------------------|--------------------------|--------------------------|
------------------------|--------------------------|--------------------------|
------------------------|--------------------------|--------------------------|
------------------------|--------3-3-3-5-5-5-7-7-7-|--------7-7-7-5-5-5-8-8-8-|
--3--3-x-x-x-4--4-x-x-x-|--------------------------|--3-3-3-------------------|
------------------------|--0-0-0-------------------|--------------------------|


                                                      
--------------------------|--------------------------|
--------------------------|--------------------------|
--------------------------|--------------------------|
--------8-8-8-7-7-7-5-5-5-|--------7-7-7-------7-7-7-|
--1-1-1-------------------|--3-3-3-------4-4-4-------|
--------------------------|--------------------------|


                                                      
--------------------------|--------------------------|
--------------------------|--------------------------|
--------------------------|--------------------------|
--------0-0-0-2-2-2-3-3-3-|--------3-3-3-2-2-2-5-5-5-|
--------------------------|--3-3-3-------------------|
--0-0-0-------------------|--------------------------|


                                                                             
--------------------------|------------------------|------------------------|
--------------------------|------------------------|------------------------|
--------------------------|------------------------|-------------------0--2-|
--------2-2-2-3-3-3-5-5-5-|------------------------|--------3--5------------|
--1-1-1-------------------|--3--3-x-x-x-4--4-x-x-x-|------------------------|
--------------------------|------------------------|--0-0-0------0-0-0------|


                                                                             
------------------------|------------------------|--------------------------|
------------------------|------------------------|--------------------------|
--------2--2-------2--2-|--------2--3-------2--3-|--------2-2-2-------2-2-2-|
------------------------|------------------------|--------------------------|
--3-3-3------3-3-3------|--1-1-1------1-1-1------|--3-3-3-------4-4-4-------|
------------------------|------------------------|--------------------------|


                                                                           
------------------------|------------------------|------------------------|
------------------------|------------------------|------------------------|
-------------------0--2-|--------2--2-------2--2-|--------2--3-------2--3-|
--------3--5------------|------------------------|------------------------|
------------------------|--3-3-3------3-3-3------|--1-1-1------1-1-1------|
--0-0-0------0-0-0------|------------------------|------------------------|


                                                                               
------------------------|--------------------------|--------------------------|
------------------------|--------------------------|--------------------------|
------------------------|--------------------------|--------------------------|
------------------------|--------7-7-7-------------|--------------------------|
--3--3-x-x-x-4--4-x-x-x-|--------------8-8-8-8-8-8-|--7-7-7-7-7-7-7-7-7-7h8h7-|
------------------------|--0-0-0-------------------|--------------------------|


                                                      
--------------------------|--------------------------|
--------------------------|--------------------------|
--------------------------|--------------------------|
--------------------------|--------------------------|
--------------------------|--------4-4-4-4-4-4-5-5-5-|
--8-8-8-8-8-8-8-8-8-8-8-8-|--5-5-5-------------------|


                                                      
--------------------------|--------------------------|
--------------------------|--------------------------|
--------------------------|--------------------------|
--------7-7-7-------------|--------------------------|
--------------8-8-8-8-8-8-|--7-7-7-7-7-7-7-7-7-7h8h7-|
--0-0-0-------------------|--------------------------|


                                                      
--------------------------|--------------------------|
--------------------------|--------------------------|
--------------------------|--------------------------|
--------------------------|--------------------------|
--------------------------|--------4-4-4-4-4-4-5-5-5-|
--8-8-8-8-8-8-8-8-8-8-8-8-|--5-5-5-------------------|


                                                      
--------------------------|--------------------------|
--------------------------|--------------------------|
--------------------------|--------------------------|
--------7-7-7-------------|--------------------------|
--------------8-8-8-8-8-8-|--7-7-7-7-7-7-7-7-7-7h8h7-|
--0-0-0-------------------|--------------------------|


                                                      
--------------------------|--------------------------|
--------------------------|--------------------------|
--------------------------|--------------------------|
--------------------------|--------------------------|
--------------------------|--------4-4-4-4-4-4-5-5-5-|
--8-8-8-8-8-8-8-8-8-8-8-8-|--5-5-5-------------------|


                                                                      
--------------------------|--------------------------|---------------|
--------------------------|--------------------------|---------------|
--------------------------|--------------------------|---------------|
--------7-7-7-------------|--------------------------|---------------|
--------------8-8-8-8-8-8-|--7-7-7-7-7-7-7-7-7-7h8h7-|---------------|
--0-0-0-------------------|--------------------------|--8~-----------|


                                                                              
---------------|---------------|--------------|--------------|---------------|
---------------|---------------|--------------|--------------|---------------|
---------------|---------------|--------------|--------------|---------------|
---------------|---------------|--------------|--------------|---------------|
---------------|---------------|--------------|--------------|---------------|
----5~---------|-------0-------|--------------|--------------|---8-----------|


                                                                               
----------------|---------------|--------------|--------------|---------------|
----------------|---------------|--------------|--------------|---------------|
----------------|---------------|--------------|--------------|---------------|
----------------|---------------|--------------|--------------|---------------|
----------------|---------------|--------------|--------------|---------------|
-------11-------|-----------0---|--------------|--------------|-------8-------|


                                                                               
----------------|--------------|---------------|--------------|---------------|
----------------|--------------|---------------|--------------|---------------|
----------------|--------------|---------------|--------------|---------------|
----------------|--------------|---------------|--------------|---------------|
----------------|--------------|---------------|--------------|---------------|
-----------11---|--------------|---0-----------|--------------|-----------8---|


                                                                              
--------------|----------------|---------------|--------------|--------------|
--------------|----------------|---------------|--------------|--------------|
--------------|----------------|---------------|--------------|--------------|
--------------|----------------|---------------|--------------|--------------|
--------------|----------------|---------------|--------------|--------------|
--------------|---11-----------|-------0-------|--------------|--------------|


                                                                        
---------------|----------------|-----------|--------------------------|
---------------|----------------|-----------|--------------------------|
---------------|----------------|-----------|--------------------------|
---------------|----------------|-----------|--------------------------|
---------------|----------------|-----------|--------------------------|
---8-----------|-------11-------|-----------|--0--0--0--3--0--0--2h-3--|


                                                                    
---------------------------|-------------------|-------------------|
---------------------------|-------------------|-------------------|
---------------------------|-------------------|-------------------|
---------------------------|-------------------|-------------------|
---------------------------|-------------------|-------------------|
--0--3--0--0--2--3--2h3h2--|--8----------------|--0----------------|


                                                                           
--------------------------|---------------------------|-------------------|
--------------------------|---------------------------|-------------------|
--------------------------|---------------------------|-------------------|
--------------------------|---------------------------|-------------------|
--------------------------|---------------------------|-------------------|
--0--0--0--3--0--0--2h-3--|--0--3--0--0--2--3--2h3h2--|--8----------------|


                                                                           
-------------------|--------------------------|---------------------------|
-------------------|--------------------------|---------------------------|
-------------------|--------------------------|---------------------------|
-------------------|--------------------------|---------------------------|
-------------------|--------------------------|---------------------------|
--0----------------|--0--0--0--3--0--0--2h-3--|--0--3--0--0--2--3--2h3h2--|


                                                                   
-------------------|-------------------|--------------------------|
-------------------|-------------------|--------------------------|
-------------------|-------------------|--------------------------|
-------------------|-------------------|--------------------------|
-------------------|-------------------|--------------------------|
--8----------------|--0----------------|--0--0--0--3--0--0--2h-3--|


                                                                    
---------------------------|-------------------|-------------------|
---------------------------|-------------------|-------------------|
---------------------------|-------------------|-------------------|
---------------------------|-------------------|-------------------|
---------------------------|-------------------|-------------------|
--0--3--0--0--2--3--2h3h2--|--8----------------|--0----------------|


                                                              
--------------------|--------------------|-------------------|
--------------------|--------------------|-------------------|
--------------------|--------------------|-------------------|
--------------------|--------------------|-------------------|
--------------------|--------------------|-------------------|
--12----------------|--10----------------|--8----------------|


                                                                 
----------------------|--------------------|--------------------|
----------------------|--------------------|--------------------|
----------------------|--------------------|--------------------|
----------------------|--------------------|--------------------|
----------------------|--------------------|--------------------|
--10h-------11--------|--12----------------|--10----------------|


                                                                
-------------------|----------------------|--------------------|
-------------------|----------------------|--------------------|
-------------------|----------------------|--------------------|
-------------------|----------------------|--------------------|
-------------------|----------------------|--------------------|
--8----------------|--10h-------11--------|--12----------------|


                                                                
--------------------|-------------------|----------------------|
--------------------|-------------------|----------------------|
--------------------|-------------------|----------------------|
--------------------|-------------------|----------------------|
--------------------|-------------------|----------------------|
--10----------------|--8----------------|--10h-------11--------|


                                                              
--------------------|--------------------|-------------------|
--------------------|--------------------|-------------------|
--------------------|--------------------|-------------------|
--------------------|--------------------|-------------------|
--------------------|--------------------|-------------------|
--12----------------|--10----------------|--8----------------|


                                                        
------------------------|---|--------------------------|
------------------------|---|--------------------------|
------------------------|---|--------------------------|
------------------------|---|--------3-3-3-5-5-5-7-7-7-|
--3--3-x-x-x-4--4-x-x-x-|---|--------------------------|
------------------------|---|--0-0-0-------------------|


                                                      
--------------------------|--------------------------|
--------------------------|--------------------------|
--------------------------|--------------------------|
--------7-7-7-5-5-5-8-8-8-|--------8-8-8-7-7-7-5-5-5-|
--3-3-3-------------------|--1-1-1-------------------|
--------------------------|--------------------------|


                                                      
--------------------------|--------------------------|
--------------------------|--------------------------|
--------------------------|--------------------------|
--------7-7-7-------7-7-7-|--------3-3-3-5-5-5-7-7-7-|
--3-3-3-------4-4-4-------|--------------------------|
--------------------------|--0-0-0-------------------|


                                                                               
--------------------------|--------------------------|------------------------|
--------------------------|--------------------------|------------------------|
--------------------------|--------------------------|------------------------|
--------7-7-7-5-5-5-8-8-8-|--------8-8-8-7-7-7-5-5-5-|------------------------|
--3-3-3-------------------|--1-1-1-------------------|--3--3-x-x-x-4--4-x-x-x-|
--------------------------|--------------------------|------------------------|


                                                                           
------------------------|------------------------|------------------------|
------------------------|------------------------|------------------------|
-------------------0--2-|--------2--2-------2--2-|--------2--3-------2--3-|
--------3--5------------|------------------------|------------------------|
------------------------|--3-3-3------3-3-3------|--1-1-1------1-1-1------|
--0-0-0------0-0-0------|------------------------|------------------------|


                                                                             
--------------------------|------------------------|------------------------|
--------------------------|------------------------|------------------------|
--------2-2-2-------2-2-2-|-------------------0--2-|--------2--2-------2--2-|
--------------------------|--------3--5------------|------------------------|
--3-3-3-------4-4-4-------|------------------------|--3-3-3------3-3-3------|
--------------------------|--0-0-0------0-0-0------|------------------------|


                                                                             
------------------------|------------------------|--------------------------|
------------------------|------------------------|--------------------------|
--------2--3-------2--3-|------------------------|--------------------------|
------------------------|------------------------|--------7-7-7-------------|
--1-1-1------1-1-1------|--3--3-x-x-x-4--4-x-x-x-|--------------8-8-8-8-8-8-|
------------------------|------------------------|--0-0-0-------------------|


                                                      
--------------------------|--------------------------|
--------------------------|--------------------------|
--------------------------|--------------------------|
--------------------------|--------------------------|
--7-7-7-7-7-7-7-7-7-7h8h7-|--------------------------|
--------------------------|--8-8-8-8-8-8-8-8-8-8-8-8-|


                                                      
--------------------------|--------------------------|
--------------------------|--------------------------|
--------------------------|--------------------------|
--------------------------|--------7-7-7-------------|
--------4-4-4-4-4-4-5-5-5-|--------------8-8-8-8-8-8-|
--5-5-5-------------------|--0-0-0-------------------|


                                                      
--------------------------|--------------------------|
--------------------------|--------------------------|
--------------------------|--------------------------|
--------------------------|--------------------------|
--7-7-7-7-7-7-7-7-7-7h8h7-|--------------------------|
--------------------------|--8-8-8-8-8-8-8-8-8-8-8-8-|


                                                      
--------------------------|--------------------------|
--------------------------|--------------------------|
--------------------------|--------------------------|
--------------------------|--------7-7-7-------------|
--------4-4-4-4-4-4-5-5-5-|--------------8-8-8-8-8-8-|
--5-5-5-------------------|--0-0-0-------------------|


                                                      
--------------------------|--------------------------|
--------------------------|--------------------------|
--------------------------|--------------------------|
--------------------------|--------------------------|
--7-7-7-7-7-7-7-7-7-7h8h7-|--------------------------|
--------------------------|--8-8-8-8-8-8-8-8-8-8-8-8-|


                                                      
--------------------------|--------------------------|
--------------------------|--------------------------|
--------------------------|--------------------------|
--------------------------|--------7-7-7-------------|
--------4-4-4-4-4-4-5-5-5-|--------------8-8-8-8-8-8-|
--5-5-5-------------------|--0-0-0-------------------|


                                                                               
--------------------------|---------------|---------------|---|---|---|---|---|
--------------------------|---------------|---------------|---|---|---|---|---|
--------------------------|---------------|---------------|---|---|---|---|---|
--------------------------|---------------|---------------|---|---|---|---|---|
--7-7-7-7-7-7-7-7-7-7h8h7-|---------------|---------------|---|---|---|---|---|
--------------------------|--8~-----------|----5~---------|---|---|---|---|---|


                                                                         
---|---|---|---|---|---|---|---|---|---|---|---|---|---|---|---|---|---||
---|---|---|---|---|---|---|---|---|---|---|---|---|---|---|---|---|---||
---|---|---|---|---|---|---|---|---|---|---|---|---|---|---|---|---|---||
---|---|---|---|---|---|---|---|---|---|---|---|---|---|---|---|---|---||
---|---|---|---|---|---|---|---|---|---|---|---|---|---|---|---|---|---||
---|---|---|---|---|---|---|---|---|---|---|---|---|---|---|---|---|---||





Comments


Popular Darkest Hour tabs & chords
Convalescence 1 Bass Tabs
Legacy Bass Tabs
Oklahoma Bass Tabs
Doomsayer 2 Tabs
Fire In The Skies Tabs
Legacy Tabs
Pay Phones And Pills Tabs
Sound The Surrender Tabs
Stand And Receive Your Judgement Tabs
With A Thousand Words To Say But One 1 Tabs


Song lyrics



↑ Back to top | Tablatures and chords are parodies/interpretations of the original songs. You may use it for private study, scholarship, research or language learning purposes only
© 2014 AZChords.com Contact us | Privacy policy | DMCA | Add/correct tabs | Request tabs | Top 50 tabs