» » »

Eclipse Bass tabs (ver.1)

Artists:  A B C D E F G H I J K L M N O P Q R S T U V W X Y Z # 

Eclipse Bass tabs (ver.1)

Darkest Hour
Rating:
0/5 (0 votes)

Tabs too difficult? Try these video lessons and learn fast.
                tuning: c g c f


verse 1

|-----------------------------------------------------------------|
|-----------------------------------------------------------------|
|-------8--10--12------12--10--13-----13--12--10------12------12--|
|----0-------------10--------------8--------------10------11------|

verse 2

|----------------------------------------------------------------|
|-------7--9--10-----10--9--12-----9--10--12------12--10--9------|
|-----------------7-------------8-------------10-----------------|
|----0-----------------------------------------------------------|

verse 3

|--------------------------------------------------------------------------|
|--------------------------------------------------------------------------|
|---8--10-----10--12------12------12-----12--13------12--13------12------12|
|0---------0----------10------10------8----------8-----------10------11----|

verse 4

|-------------------------------------------------------------------------------|
|-------------------------------------------------------------------------------|
|------8--10-----10--12------12------12-----12--13-----12--13-------------------|
|---0---------0----------10------10------8----------8----------10-10-xx-11-11-xx|

verse 5

|---------------------------------------------------------------------|
|---7-----------------------------------------------------------------|
|------8--8--7--7--7\8\7--------------4--4--5~~~~---------------------|
|-------------------------8--8--8--5----------------------------------|

verse 6

|----------------------------------------------------------------------|
|---7-----5--7--10--8--8--7~~~~~~~~~~~~~-------------------------------|
|------8---------------------------------------------------------------|
|----------------------------------------------------------------------|

and thats it just listen for order and and i thats it peace
            
Tabs too difficult? Try these video lessons and learn fast.


comments powered by Disqus
↑ Back to top | Tablatures and chords are parodies/interpretations of the original songs. You may use it for private study, scholarship, research or language learning purposes only