>
 >
Eclipse

Eclipse Guitar Tabs

Darkest Hour - Eclipse chords, tabs, tablatures, lyrics

Guitar lessons | Add/correct | Request | Top 50 tabs Artists:  A B C D E F G H I J K L M N O P Q R S T U V W X Y Z 0-9

Eclipse Guitar Tabs – Darkest Hour

CD, Sheet music, Poster

Do you like Eclipse? Share with your friends now
Bass TabsBass Tabs v2Bass Tabs v3Tabs
Darkest Hour - "Eclipse"
Guitar 1
Song played in drop C (low to high - C,G,C,F,A,D)



                                                         
D||--------------------------|--------------------------|
A||--------------------------|--------------------------|
F||--------------------------|--------------------------|
C||--------3-3-3-5-5-5-7-7-7-|--------7-7-7-5-5-5-8-8-8-|
G||--5-----------------------|--3-3-3-------------------|
C||--0-0-0-------------------|--------------------------|


                                                      
--------------------------|--------------------------|
--------------------------|--------------------------|
--------------------------|--------------------------|
--------8-8-8-7-7-7-5-5-5-|--------7-7-7-------7-7-7-|
--1-1-1-------------------|--3-3-3-------4-4-4-------|
--------------------------|--------------------------|


                                                      
--------------------------|--------------------------|
--------------------------|--------------------------|
--------------------------|--------------------------|
--------3-3-3-5-5-5-7-7-7-|--------7-7-7-5-5-5-8-8-8-|
--------------------------|--3-3-3-------------------|
--0-0-0-------------------|--------------------------|


                                                      
--------------------------|--------------------------|
--------------------------|--------------------------|
--------------------------|--------------------------|
--------8-8-8-7-7-7-5-5-5-|--------7-7-7-------7-7-7-|
--1-1-1-------------------|--3-3-3-------4-4-4-------|
--------------------------|--------------------------|


                                                      
--------------------------|--------------------------|
--------------------------|--------------------------|
--------------------------|--------------------------|
--------3-3-3-5-5-5-7-7-7-|--------7-7-7-5-5-5-8-8-8-|
--------------------------|--3-3-3-------------------|
--0-0-0-------------------|--------------------------|


                                                      
--------------------------|--------------------------|
--------------------------|--------------------------|
--------------------------|--------------------------|
--------8-8-8-7-7-7-5-5-5-|--------7-7-7-------7-7-7-|
--1-1-1-------------------|--3-3-3-------4-4-4-------|
--------------------------|--------------------------|


                                                      
--------------------------|--------------------------|
--------------------------|--------------------------|
--------------------------|--------------------------|
--------3-3-3-5-5-5-7-7-7-|--------7-7-7-5-5-5-8-8-8-|
--------------------------|--3-3-3-------------------|
--0-0-0-------------------|--------------------------|


                                                                             
--------------------------|------------------------|------------------------|
--------------------------|------------------------|------------------------|
--------------------------|------------------------|-------------------0--2-|
--------8-8-8-7-7-7-5-5-5-|--5--5-x-x-x-6--6-x-x-x-|--------3--5------------|
--1-1-1-------------------|--3--3-x-x-x-4--4-x-x-x-|------------------------|
--------------------------|------------------------|--0-0-0------0-0-0------|


                                                                             
------------------------|------------------------|--------------------------|
------------------------|------------------------|--------------------------|
--------2--2-------2--2-|--------2--3-------2--3-|--------2-2-2-------2-2-2-|
------------------------|------------------------|--------------------------|
--3-3-3------3-3-3------|--1-1-1------1-1-1------|--3-3-3-------4-4-4-------|
------------------------|------------------------|--------------------------|


                                                                           
------------------------|------------------------|------------------------|
------------------------|------------------------|------------------------|
-------------------0--2-|--------2--2-------2--2-|--------2--3-------2--3-|
--------3--5------------|------------------------|------------------------|
------------------------|--3-3-3------3-3-3------|--1-1-1------1-1-1------|
--0-0-0------0-0-0------|------------------------|------------------------|


                                                                             
--------------------------|------------------------|------------------------|
--------------------------|------------------------|------------------------|
--------2-2-2-------2-2-2-|-------------------0--2-|--------2--2-------2--2-|
--------------------------|--------3--5------------|------------------------|
--3-3-3-------4-4-4-------|------------------------|--3-3-3------3-3-3------|
--------------------------|--0-0-0------0-0-0------|------------------------|


                                                                             
------------------------|--------------------------|------------------------|
------------------------|--------------------------|------------------------|
--------2--3-------2--3-|--------2-2-2-------2-2-2-|-------------------0--2-|
------------------------|--------------------------|--------3--5------------|
--1-1-1------1-1-1------|--3-3-3-------4-4-4-------|------------------------|
------------------------|--------------------------|--0-0-0------0-0-0------|


                                                                           
------------------------|------------------------|------------------------|
------------------------|------------------------|------------------------|
--------2--2-------2--2-|--------2--3-------2--3-|------------------------|
------------------------|------------------------|--5--5-x-x-x-6--6-x-x-x-|
--3-3-3------3-3-3------|--1-1-1------1-1-1------|--3--3-x-x-x-4--4-x-x-x-|
------------------------|------------------------|------------------------|


                                                      
--------------------------|--------------------------|
--------------------------|--------------------------|
--------------------------|--------------------------|
--------3-3-3-5-5-5-7-7-7-|--------7-7-7-5-5-5-8-8-8-|
--------------------------|--3-3-3-------------------|
--0-0-0-------------------|--------------------------|


                                                      
--------------------------|--------------------------|
--------------------------|--------------------------|
--------------------------|--------------------------|
--------8-8-8-7-7-7-5-5-5-|--------7-7-7-------7-7-7-|
--1-1-1-------------------|--3-3-3-------4-4-4-------|
--------------------------|--------------------------|


                                                      
--------------------------|--------------------------|
--------------------------|--------------------------|
--------------------------|--------------------------|
--------3-3-3-5-5-5-7-7-7-|--------7-7-7-5-5-5-8-8-8-|
--------------------------|--3-3-3-------------------|
--0-0-0-------------------|--------------------------|


                                                                             
--------------------------|------------------------|------------------------|
--------------------------|------------------------|------------------------|
--------------------------|------------------------|-------------------0--2-|
--------8-8-8-7-7-7-5-5-5-|--5--5-x-x-x-6--6-x-x-x-|--------3--5------------|
--1-1-1-------------------|--3--3-x-x-x-4--4-x-x-x-|------------------------|
--------------------------|------------------------|--0-0-0------0-0-0------|


                                                                             
------------------------|------------------------|--------------------------|
------------------------|------------------------|--------------------------|
--------2--2-------2--2-|--------2--3-------2--3-|--------2-2-2-------2-2-2-|
------------------------|------------------------|--------------------------|
--3-3-3------3-3-3------|--1-1-1------1-1-1------|--3-3-3-------4-4-4-------|
------------------------|------------------------|--------------------------|


                                                                           
------------------------|------------------------|------------------------|
------------------------|------------------------|------------------------|
-------------------0--2-|--------2--2-------2--2-|--------2--3-------2--3-|
--------3--5------------|------------------------|------------------------|
------------------------|--3-3-3------3-3-3------|--1-1-1------1-1-1------|
--0-0-0------0-0-0------|------------------------|------------------------|


                                                                               
------------------------|--------------------------|--------------------------|
------------------------|--------------------------|--------------------------|
------------------------|--------------------------|--------------------------|
--5--5-x-x-x-6--6-x-x-x-|--------7-7-7-------------|--------------------------|
--3--3-x-x-x-4--4-x-x-x-|--------------8-8-8-8-8-8-|--7-7-7-7-7-7-7-7-7-7h8h7-|
------------------------|--0-0-0-------------------|--------------------------|


                                                      
--------------------------|--------------------------|
--------------------------|--------------------------|
--------------------------|--------------------------|
--------------------------|--------------------------|
--------------------------|--------4-4-4-4-4-4-5-5-5-|
--8-8-8-8-8-8-8-8-8-8-8-8-|--5-5-5-------------------|


                                                      
--------------------------|--------------------------|
--------------------------|--------------------------|
--------------------------|--------------------------|
--------7-7-7-------------|--------------------------|
--------------8-8-8-8-8-8-|--7-7-7-7-7-7-7-7-7-7h8h7-|
--0-0-0-------------------|--------------------------|


                                                      
--------------------------|--------------------------|
--------------------------|--------------------------|
--------------------------|--------------------------|
--------------------------|--------------------------|
--------------------------|--------4-4-4-4-4-4-5-5-5-|
--8-8-8-8-8-8-8-8-8-8-8-8-|--5-5-5-------------------|


                                                      
--------------------------|--------------------------|
--------------------------|--------------------------|
--------------------------|--------------------------|
--------7-7-7-------------|--------------------------|
--------------8-8-8-8-8-8-|--7-7-7-7-7-7-7-7-7-7h8h7-|
--0-0-0-------------------|--------------------------|


                                                      
--------------------------|--------------------------|
--------------------------|--------------------------|
--------------------------|--------------------------|
--------------------------|--------------------------|
--------------------------|--------4-4-4-4-4-4-5-5-5-|
--8-8-8-8-8-8-8-8-8-8-8-8-|--5-5-5-------------------|


                                                                      
--------------------------|--------------------------|---------------|
--------------------------|--------------------------|---------------|
--------------------------|--------------------------|---------------|
--------7-7-7-------------|--------------------------|---------------|
--------------8-8-8-8-8-8-|--7-7-7-7-7-7-7-7-7-7h8h7-|---------------|
--0-0-0-------------------|--------------------------|--8~-----------|


                                                                              
---------------|---------------|--------------|--------------|---------------|
---------------|---------------|--------------|--------------|---------------|
---------------|---------------|--------------|--------------|---------------|
---------------|---------------|--------------|--------------|---------------|
---------------|-------0-------|--------------|--------------|---8-----------|
----5~---------|-------0-------|--------------|--------------|---8-----------|


                                                                               
----------------|---------------|--------------|--------------|---------------|
----------------|---------------|--------------|--------------|---------------|
----------------|---------------|--------------|--------------|---------------|
----------------|---------------|--------------|--------------|---------------|
-------11-------|-----------0---|--------------|--------------|-------8-------|
-------11-------|-----------0---|--------------|--------------|-------8-------|


                                                                               
----------------|--------------|---------------|--------------|---------------|
----------------|--------------|---------------|--------------|---------------|
----------------|--------------|---------------|--------------|---------------|
----------------|--------------|---------------|--------------|---------------|
-----------11---|--------------|---0-----------|--------------|-----------8---|
-----------11---|--------------|---0-----------|--------------|-----------8---|


                                                                              
--------------|----------------|---------------|--------------|--------------|
--------------|----------------|---------------|--------------|--------------|
--------------|----------------|---------------|--------------|--------------|
--------------|----------------|---------------|--------------|--------------|
--------------|---11-----------|-------0-------|--------------|--------------|
--------------|---11-----------|-------0-------|--------------|--------------|


                                                                        
---------------|----------------|-----------|--------------------------|
---------------|----------------|-----------|--------------------------|
---------------|----------------|-----------|--------------------------|
---------------|----------------|-----------|--------------------------|
---8-----------|-------11-------|-----------|--------------------------|
---8-----------|-------11-------|-----------|--0--0--0--7--0--0--5h-7--|


                                                                    
---------------------------|-------------------|-------------------|
---------------------------|-------------------|-------------------|
---------------------------|-------------------|-------------------|
---------------------------|-------------------|-------------------|
---------------------------|--8----------------|--5----------------|
--0--7--0--0--5--7--5h7h5--|--8----------------|--0----------------|


                                                                           
--------------------------|---------------------------|-------------------|
--------------------------|---------------------------|-------------------|
--------------------------|---------------------------|-------------------|
--------------------------|---------------------------|-------------------|
--------------------------|---------------------------|--8----------------|
--0--0--0--7--0--0--5h-7--|--0--7--0--0--5--7--5h7h5--|--8----------------|


                                                                           
-------------------|--------------------------|---------------------------|
-------------------|--------------------------|---------------------------|
-------------------|--------------------------|---------------------------|
-------------------|--------------------------|---------------------------|
--0----------------|--------------------------|---------------------------|
--0----------------|--0--0--0--7--0--0--5h-7--|--0--7--0--0--5--7--5h7h5--|


                                                                   
-------------------|-------------------|--------------------------|
-------------------|-------------------|--------------------------|
-------------------|-------------------|--------------------------|
-------------------|-------------------|--------------------------|
--8----------------|--5----------------|--------------------------|
--8----------------|--0----------------|--0--0--0--7--0--0--5h-7--|


                                                                    
---------------------------|-------------------|-------------------|
---------------------------|-------------------|-------------------|
---------------------------|-------------------|-------------------|
---------------------------|-------------------|-------------------|
---------------------------|--8----------------|--0----------------|
--0--7--0--0--5--7--5h7h5--|--8----------------|--0----------------|


                                                            
-------------------|-------------------|-------------------|
-------------------|-------------------|-------------------|
-------------------|-------------------|-------------------|
-------------------|-------------------|-------------------|
--0----------------|--3----------------|--8----------------|
--0----------------|--0----------------|--8----------------|


                                                               
----------------------|-------------------|-------------------|
----------------------|-------------------|-------------------|
----------------------|-------------------|-------------------|
----------------------|-------------------|-------------------|
--10h-------11--------|--0----------------|--3----------------|
--10h-------11--------|--0----------------|--0----------------|


                                                               
-------------------|----------------------|-------------------|
-------------------|----------------------|-------------------|
-------------------|----------------------|-------------------|
-------------------|----------------------|-------------------|
--8----------------|--10h-------11--------|--0----------------|
--8----------------|--10h-------11--------|--0----------------|


                                                               
-------------------|-------------------|----------------------|
-------------------|-------------------|----------------------|
-------------------|-------------------|----------------------|
-------------------|-------------------|----------------------|
--3----------------|--8----------------|--10h-------11--------|
--0----------------|--8----------------|--10h-------11--------|


                                                            
-------------------|-------------------|-------------------|
-------------------|-------------------|-------------------|
-------------------|-------------------|-------------------|
-------------------|-------------------|-------------------|
--0----------------|--3----------------|--8----------------|
--0----------------|--0----------------|--8----------------|


                                                                               
------------------------|--------------------------|--------------------------|
------------------------|--------------------------|--------------------------|
------------------------|--------------------------|--------------------------|
--5--5-x-x-x-6--6-x-x-x-|--------7-7-7-------7-7-7-|--------3-3-3-5-5-5-7-7-7-|
--3--3-x-x-x-4--4-x-x-x-|--3-3-3-------4-4-4-------|--------------------------|
------------------------|--------------------------|--0-0-0-------------------|


                                                      
--------------------------|--------------------------|
--------------------------|--------------------------|
--------------------------|--------------------------|
--------7-7-7-5-5-5-8-8-8-|--------8-8-8-7-7-7-5-5-5-|
--3-3-3-------------------|--1-1-1-------------------|
--------------------------|--------------------------|


                                                      
--------------------------|--------------------------|
--------------------------|--------------------------|
--------------------------|--------------------------|
--------7-7-7-------7-7-7-|--------3-3-3-5-5-5-7-7-7-|
--3-3-3-------4-4-4-------|--------------------------|
--------------------------|--0-0-0-------------------|


                                                                               
--------------------------|--------------------------|------------------------|
--------------------------|--------------------------|------------------------|
--------------------------|--------------------------|------------------------|
--------7-7-7-5-5-5-8-8-8-|--------8-8-8-7-7-7-5-5-5-|--5--5-x-x-x-6--6-x-x-x-|
--3-3-3-------------------|--1-1-1-------------------|--3--3-x-x-x-4--4-x-x-x-|
--------------------------|--------------------------|------------------------|


                                                                           
------------------------|------------------------|------------------------|
------------------------|------------------------|------------------------|
-------------------0--2-|--------2--2-------2--2-|--------2--3-------2--3-|
--------3--5------------|------------------------|------------------------|
------------------------|--3-3-3------3-3-3------|--1-1-1------1-1-1------|
--0-0-0------0-0-0------|------------------------|------------------------|


                                                                             
--------------------------|------------------------|------------------------|
--------------------------|------------------------|------------------------|
--------2-2-2-------2-2-2-|-------------------0--2-|--------2--2-------2--2-|
--------------------------|--------3--5------------|------------------------|
--3-3-3-------4-4-4-------|------------------------|--3-3-3------3-3-3------|
--------------------------|--0-0-0------0-0-0------|------------------------|


                                                                             
------------------------|------------------------|--------------------------|
------------------------|------------------------|--------------------------|
--------2--3-------2--3-|------------------------|--------------------------|
------------------------|--5--5-x-x-x-6--6-x-x-x-|--------7-7-7-------------|
--1-1-1------1-1-1------|--3--3-x-x-x-4--4-x-x-x-|--------------8-8-8-8-8-8-|
------------------------|------------------------|--0-0-0-------------------|


                                                      
--------------------------|--------------------------|
--------------------------|--------------------------|
--------------------------|--------------------------|
--------------------------|--------------------------|
--7-7-7-7-7-7-7-7-7-7h8h7-|--------------------------|
--------------------------|--8-8-8-8-8-8-8-8-8-8-8-8-|


                                                      
--------------------------|--------------------------|
--------------------------|--------------------------|
--------------------------|--------------------------|
--------------------------|--------7-7-7-------------|
--------4-4-4-4-4-4-5-5-5-|--------------8-8-8-8-8-8-|
--5-5-5-------------------|--0-0-0-------------------|


                                                      
--------------------------|--------------------------|
--------------------------|--------------------------|
--------------------------|--------------------------|
--------------------------|--------------------------|
--7-7-7-7-7-7-7-7-7-7h8h7-|--------------------------|
--------------------------|--8-8-8-8-8-8-8-8-8-8-8-8-|


                                                      
--------------------------|--------------------------|
--------------------------|--------------------------|
--------------------------|--------------------------|
--------------------------|--------7-7-7-------------|
--------4-4-4-4-4-4-5-5-5-|--------------8-8-8-8-8-8-|
--5-5-5-------------------|--0-0-0-------------------|


                                                      
--------------------------|--------------------------|
--------------------------|--------------------------|
--------------------------|--------------------------|
--------------------------|--------------------------|
--7-7-7-7-7-7-7-7-7-7h8h7-|--------------------------|
--------------------------|--8-8-8-8-8-8-8-8-8-8-8-8-|


                                                      
--------------------------|--------------------------|
--------------------------|--------------------------|
--------------------------|--------------------------|
--------------------------|--------7-7-7-------------|
--------4-4-4-4-4-4-5-5-5-|--------------8-8-8-8-8-8-|
--5-5-5-------------------|--0-0-0-------------------|


                                                                           
--------------------------|---------------|---------------|---------------|
--------------------------|---------------|---------------|---------------|
--------------------------|---------------|---------------|---------------|
--------------------------|---------------|---------------|---------------|
--7-7-7-7-7-7-7-7-7-7h8h7-|---------------|---------------|-------0-------|
--------------------------|--8~-----------|----5~---------|-------0-------|


                                                                            
--------------|--------------|--------------|---------------|--------------|
--------------|--------------|--------------|---------------|--------------|
--------------|--------------|--------------|---------------|--------------|
--------------|--------------|--------------|---------------|--------------|
--------------|--------------|--------------|-------------0-|--------------|
--------------|--------------|--------------|-------------0-|--------------|


                                                                            
--------------|--------------|--------------|---------------|--------------|
--------------|--------------|--------------|---------------|--------------|
--------------|--------------|--------------|---------------|--------------|
--------------|--------------|--------------|---------------|--------------|
--------------|--------------|--------------|-------0-------|--------------|
--------------|--------------|--------------|-------0-------|--------------|


                                                                            
--------------|--------------|---------------|--------------|--------------|
--------------|--------------|---------------|--------------|--------------|
--------------|--------------|---------------|--------------|--------------|
--------------|--------------|---------------|--------------|--------------|
--------------|--------------|-------------0-|--------------|--------------|
--------------|--------------|-------------0-|--------------|--------------|


                                                                           
--------------|--------------|--------------|--------------|--------------|
--------------|--------------|--------------|--------------|--------------|
--------------|--------------|--------------|--------------|--------------|
--------------|--------------|--------------|--------------|--------------|
--------------|--------------|--------------|--------------|--------------|
--------------|--------------|--------------|--------------|--------------|


                    
--------------|---||
--------------|---||
--------------|---||
--------------|---||
--------------|---||
--------------|---||





Comments


Popular Darkest Hour tabs & chords
Eclipse 3 Bass Tabs
Bear Hunting Tabs
Closing On The Day Tabs
Convalescence 1 Tabs
Fire In The Sky Tabs
Last Dance Massacre Tabs
Mark Of The Judas Tabs
Mark Of The Judas 1 Tabs
This Curse Tabs
With Friends Like These Intro Tabs


Song lyrics



↑ Back to top | Tablatures and chords are parodies/interpretations of the original songs. You may use it for private study, scholarship, research or language learning purposes only
© 2014 AZChords.com Contact us | Privacy policy | DMCA | Add/correct tabs | Request tabs | Top 50 tabs