» » »

Danny Elfman, This Is Halloween Tabs (ver.3)

Artists:  A B C D E F G H I J K L M N O P Q R S T U V W X Y Z # 

This Is Halloween Tabs (ver.3)

Danny Elfman Tabs
 Rating:
3.3/5 (6 votes)
This Is Halloween lessons Tabs too difficult? Try these video lessons and learn fast
                Its basically all on the A string:
This is by ear so it might not be completely right


Intro:
E--------------------------------------------------------------------------------|
B--------------------------------------------------------------------------------|
G--------------------------------------------------------------------------------|
D--------------------------------------------------------------------------------|
A-10---10---10---10-11-8---8---8---8-11-10---10---10---10-11-8---8---8---8-11-10-|
E--------------------------------------------------------------------------------|

Verse:
E------------------------------------------------------------------------------|
B------------------------------------------------------------------------------|
G------------------------------------------------------------------------------|
D------------------------------------------------------------------------------|
A-10--10--10--10--10-11-8--8---8-8-8--8-8-8--8h10-11-10------------------------|
E------------------------------------------------------------------------------|

E------------------------------------------------------------------------------|
B------------------------------------------------------------------------------|
G------------------------------------------------------------------------------|
D------------------------------------------------------------------------------|
A-10--10--10--10h11-13--11p10-8---8--8--8--8--8h10-11-10-----------------------|
E------------------------------------------------------------------------------|

Chorus:
E------------------------------------------------------------------------------|
B------------------------------------------------------------------------------|
G------------------------------------------------------------------------------|
D------------------------------------------------------------------------------|
A-13--13--13-12-10---13--13--13-12-10--8-10-11-10-8-10-11-13-------------------|
E------------------------------------------------------------------------------|

E------------------------------------------------------------------------------|
B------------------------------------------------------------------------------|
G------------------------------------------------------------------------------|
D------------------------------------------------------------------------------|
A-14--14--14-13-11--14-14-14-14-14-13-11--8-10-11-10-8-10-11-13----------------|
E------------------------------------------------------------------------------|

That's all i can get but the verses and choruses are the same throughout the song
            
Submit corrections

comments powered by Disqus
↑ Back to top | Danny Elfman Tabs for This Is Halloween. Lyrics for acoustic guitar and electric guitar. Tablatures and chords are parodies/interpretations of the original songs. You may use it for private study, scholarship, research or language learning purposes only