» » »

Danny Elfman, This Is Halloween Bass tabs (ver.1)

Artists:  A B C D E F G H I J K L M N O P Q R S T U V W X Y Z # 

This Is Halloween Bass tabs (ver.1)

Danny Elfman Tabs
Rating:
0/5 (0 votes)
This Is Halloween lessons Tabs too difficult? Try these video lessons and learn fast
                Song Name: This Is Halloween

This is the same tab that was out there for this song but agreeing with some
comments I saw, its re-tabbed with some higher notes, sounds better to me...
enjoy!!!

INTRO
G---------------------------------------------------------------------|
D---------------------------------------------------------------------|
A---------------------------------------------------------------------|
E-9--9--9--9-(10)-7--7--7--7-8-(11)-(11)-(11)-(11)-(12)-9-9-(12)-(11)-|

VERSE
G---------------------------------------------------------------------------------------|
D---------------------------------------------------------------------------------------|
A---------------------------------------------------------------------------------------|
E-9-9-9-9-9-(10)-7-7--7-7-7-7-7-7-(10)-9--9-9-9-(10)-(12)--(10)-9-7-7-7-7--(10)-9-5-4-7-|

CHORUS
G---------------------------------------|
D---------------------------------------|
A-9-9-9-8-6-9-9-9-8-6-9-----------7-6-7-|
E-----------------------9-9-8-6-5-------|

G---------------------------------------|
D---------------------------------------|
A-9-9-9-8-6-9-9-9-8-6-9-----------7-6-7-|
E-----------------------9-9-8-6-5-------|

BRIDGE
G----------------------------------------------------|
D--------------------------(12)-(12)-(10)-8-7-(12)-5-|
A---------------------(10)---------------------------|
E-9-9-(10)-9-9-(10)-7--------------------------------|
            
Submit corrections

comments powered by Disqus
↑ Back to top | Danny Elfman Bass for This Is Halloween. Lyrics for acoustic guitar and electric guitar. Tablatures and chords are parodies/interpretations of the original songs. You may use it for private study, scholarship, research or language learning purposes only