» » »

Danny Elfman, This Is Halloween Bass tabs (ver.2)

Artists:  A B C D E F G H I J K L M N O P Q R S T U V W X Y Z # 

This Is Halloween Bass tabs (ver.2)

Danny Elfman Tabs
 Rating:
3.8/5 (5 votes)
This Is Halloween lessons Tabs too difficult? Try these video lessons and learn fast
1
                This is my first tab, I got it from listning to various versions of the song (Danny 
Panic! At The Disco, Buckethead, etc.) enjoy!

INTRO
E-5--5--5--5-6-3--3--3-3-4-7--7--7-8-5-5-8-7-|
A--------------------------------------------|
D--------------------------------------------|
G--------------------------------------------|

VERSE
E-5-5-5-5-5-6-3-3--3-3-3-3-3-3-6-5--5-5-5-6-8--6-5-3-3-3-3--6-5-1-0-3-|
A---------------------------------------------------------------------|
D---------------------------------------------------------------------|
G---------------------------------------------------------------------|

CHORUS
E-----------------------6-6-4-3-1-------|
A-6-6-6-4-3-6-6-6-4-3-6-----------3-2-3-|
D---------------------------------------|
G---------------------------------------|

E---------------------------6-6-4-3-1-------|
A-6-6-6-4-3-6-6-6-6-6-4-3-6-----------3-2-3-|
D-------------------------------------------|
G-------------------------------------------|

BRIDGE
E-5-5-6-5-5-6-3-----------------|
A---------------6---------------|
D-----------------8-8-6-4-3-8-1-|
G-------------------------------|
            
Submit corrections

comments powered by Disqus
↑ Back to top | Danny Elfman Bass for This Is Halloween. Lyrics for acoustic guitar and electric guitar. 1 Tablatures and chords are parodies/interpretations of the original songs. You may use it for private study, scholarship, research or language learning purposes only