» » »

Danny Elfman, The Little Things Tabs (ver.2)

Artists:  A B C D E F G H I J K L M N O P Q R S T U V W X Y Z # 

The Little Things Tabs (ver.2)

Danny Elfman Tabs
 Rating:
4.6/5 (9 votes)
The Little Things lessons Tabs too difficult? Try these video lessons and learn fast
                This is my first time tabbing, it sounds good in my opinion.


Danny Elfman - The Little Things - Wanted Soundtrack

Bass
00:00-00:07
e|---------------------------------------------------------------|
B|---------------------------------------------------------------|
G|---------------------------------------------------------------|
D|---------------------------------------------------------------|
A|---------------------------------------------------------------|
E|--4-6-7-6---4-6-7-6---4-6-7-6-9-7-6-4-6-7-6--------------------|

Guitar + Bass
00:07-00:15 
e|---------------------------------------------------------------|
B|---------------------------------------------------------------|
G|---------------------------------------------------------------|
D|---------------------------------------------------------------|
A|--6-8-9-8---6-8-9-8---6-8-9-8-11-9-8-6-8-9-8-------------------|
E|--4-6-7-6---4-6-7-6---4-6-7-6-9--7-6-4-6-7-6-------------------|

00:16-00:23  
e|---------------------------------------------------------------|
B|---------------------------------------------------------------|
G|---------------------------------------------------------------|
D|---------------------------------------------------------------|
A|--8p-8p---4-4-4---6--6-6---8p-8p---4-4-4---6--6-6--------------|
E|--6p-6p---2-2-2---4--4-4---6p-8p---2-2-2---4--4-4--------------|

00:24-00:30  
e|---------------------------------------------------------------|
B|---------------------------------------------------------------|
G|---------------------------------------------------------------|
D|---------------------------------------------------------------|
A|--8p-8p---4-4-4---6--6-6---6-8-9-8-11-9-8-6-8-9-8--------------|
E|--6p-6p---2-2-2---4--4-4---4-6-7-6-9--7-6-4-6-7-6--------------|

00:31-00:38  
e|---------------------------------------------------------------|
B|---------------------------------------------------------------|
G|---------------------------------------------------------------|
D|---------------------------------------------------------------|
A|--8p-8p---4-4-4---6--6-6---8p-8p---4-4-4---6--6-6--------------|
E|--6p-6p---2-2-2---4--4-4---6p-8p---2-2-2---4--4-4--------------|

00:39-00:46  
e|---------------------------------------------------------------|
B|---------------------------------------------------------------|
G|---------------------------------------------------------------|
D|---------------------------------------------------------------|
A|--8p-8p---4-4-4---6--6-6---6-8-9-8-11-9-8-6-8-9-8--------------|
E|--6p-6p---2-2-2---4--4-4---4-6-7-6-9--7-6-4-6-7-6--------------|

00:47-00:53
e|-------------------------------------------------------------------------|
B|-------------------------------------------------------------------------|
G|-------------------------------------------------------------------------|
D|--------------------------8-8-8-8-8--7--8-8-8-8-8--7--8-8-8-8-8--7--8-8-8|
A|-6-6-6-6-6--5--6-6-6-6-6--6-6-6-6-6--5--6-6-6-6-6--5--6-6-6-6-6--5--6-6-6|
E|-4-4-4-4-4--3--4-4-4-4-4-------------------------------------------------|

00:54-00:57
e|-------------------------------------------------------------------------|
B|-------------------------------------------------------------------------|
G|-------------------------------------------------------------------------|
D|--11-11-11-11-11--10--11-11-11-11-11--10--11-11-11-11-11--10--11-11-11---|
A|---9--9--9--9--9---8---9--9--9--9--9---8---9--9--9--9--9---8---9--9--9---|
E|-------------------------------------------------------------------------|

00:58-01:05
e|-------------------------------------------------------------------------|
B|-------------------------------------------------------------------------|
G|-------------------------------------------------------------------------|
D|--13-13-13-13-13--12--13-13-13-13-13--12--13-13-13-13-13--12--13-13-13-13|
A|--11-11-11-11-11--10--11-11-11-11-11--10--11-11-11-11-11--10--11-11-11-11|
E|-------------------------------------------------------------------------|

01:06-01:09
e|---------------------------------------------------------------|
B|---------------------------------------------------------------|
G|---------------------------------------------------------------|
D|--12-12-13-13-12-13-13-12-13-13--------------------------------|
A|--10-10-11-11-10-11-11-10-11-11-11-11-11-11-11-11--------------|
E|---------------------------------------------------------------|

01:09-01:16
e|---------------------------------------------------------------|
B|---------------------------------------------------------------|
G|---------------------------------------------------------------|
D|---------------------------------------------------------------|
A|--6-8-9-8---6-8-9-8---6-8-9-8-11-9-8-6-8-9-8-------------------|
E|--4-6-7-6---4-6-7-6---4-6-7-6-9--7-6-4-6-7-6-------------------|

01:17-01:24
e|---------------------------------------------------------------|
B|---------------------------------------------------------------|
G|---------------------------------------------------------------|
D|---------------------------------------------------------------|
A|--6-8-9-8---6-8-9-8---6-8-9-8-11-9-8-6-8-9-8-------------------|
E|--4-6-7-6---4-6-7-6---4-6-7-6-9--7-6-4-6-7-6-------------------|

01:25-01:32  
e|---------------------------------------------------------------|
B|---------------------------------------------------------------|
G|---------------------------------------------------------------|
D|---------------------------------------------------------------|
A|--8p-8p---4-4-4---6--6-6---8p-8p---4-4-4---6--6-6--------------|
E|--6p-6p---2-2-2---4--4-4---6p-8p---2-2-2---4--4-4--------------|

01:33-01:39  
e|---------------------------------------------------------------|
B|---------------------------------------------------------------|
G|---------------------------------------------------------------|
D|---------------------------------------------------------------|
A|--8p-8p---4-4-4---6--6-6---6-8-9-8-11-9-8-6-8-9-8--------------|
E|--6p-6p---2-2-2---4--4-4---4-6-7-6-9--7-6-4-6-7-6--------------|

01:39-01:47  
e|---------------------------------------------------------------|
B|---------------------------------------------------------------|
G|---------------------------------------------------------------|
D|---------------------------------------------------------------|
A|--8p-8p---4-4-4---6--6-6---8p-8p---4-4-4---6--6-6--------------|
E|--6p-6p---2-2-2---4--4-4---6p-8p---2-2-2---4--4-4--------------|

01:48-01:55  
e|---------------------------------------------------------------|
B|---------------------------------------------------------------|
G|---------------------------------------------------------------|
D|---------------------------------------------------------------|
A|--8p-8p---4-4-4---6--6-6---6-8-9-8-11-9-8-6-8-9-8--------------|
E|--6p-6p---2-2-2---4--4-4---4-6-7-6-9--7-6-4-6-7-6--------------|

01:56-02:03
e|-------------------------------------------------------------------------|
B|-------------------------------------------------------------------------|
G|-------------------------------------------------------------------------|
D|--------------------------8-8-8-8-8--7--8-8-8-8-8--7--8-8-8-8-8--7--8-8-8|
A|-6-6-6-6-6--5--6-6-6-6-6--6-6-6-6-6--5--6-6-6-6-6--5--6-6-6-6-6--5--6-6-6|
E|-4-4-4-4-4--3--4-4-4-4-4-------------------------------------------------|

02:03-002:07
e|-------------------------------------------------------------------------|
B|-------------------------------------------------------------------------|
G|-------------------------------------------------------------------------|
D|--11-11-11-11-11--10--11-11-11-11-11--10--11-11-11-11-11--10--11-11-11---|
A|---9--9--9--9--9---8---9--9--9--9--9---8---9--9--9--9--9---8---9--9--9---|
E|-------------------------------------------------------------------------|

02:07-02:14
e|-------------------------------------------------------------------------|
B|-------------------------------------------------------------------------|
G|-------------------------------------------------------------------------|
D|--13-13-13-13-13--12--13-13-13-13-13--12--13-13-13-13-13--12--13-13-13-13|
A|--11-11-11-11-11--10--11-11-11-11-11--10--11-11-11-11-11--10--11-11-11-11|
E|-------------------------------------------------------------------------|

02:15-02:18
e|---------------------------------------------------------------|
B|---------------------------------------------------------------|
G|---------------------------------------------------------------|
D|--12-12-13-13-12-13-13-12-13-13--------------------------------|
A|--10-10-11-11-10-11-11-10-11-11-11-11-11-11-11-11--------------|
E|---------------------------------------------------------------|

02:18-02:25
e|---------------------------------------------------------------|
B|---------------------------------------------------------------|
G|---------------------------------------------------------------|
D|---------------------------------------------------------------|
A|--6-8-9-8---6-8-9-8---6-8-9-8-11-9-8-6-8-9-8-------------------|
E|--4-6-7-6---4-6-7-6---4-6-7-6-9--7-6-4-6-7-6-------------------|

Guitar Solo
02:26-02:37
e|-------------------------------------------------------------------------|
B|--14-13-14-13-13-12--12-11-10-11-10-11b--14-14-14-13-14-13-14-13-14-13-14|
G|-------------------------------------------------------------------------|
D|-------------------------------------------------------------------------|
A|-------------------------------------------------------------------------|
E|-------------------------------------------------------------------------|

02:38-02:45
e|---------------------------------------------------------------|
B|--16-16-14-14-13-13-11-11--16-16-14-14-13-13-11-11-------------|
G|---------------------------------------------------------------|
D|---------------------------------------------------------------|
A|---------------------------------------------------------------|
E|---------------------------------------------------------------|

02:45-02:50
e|---------------------------------------------------------------|
B|--16-16-16-14-14-13-13-14-14-16-16-14-14-13-13-16b-------------|
G|---------------------------------------------------------------|
D|---------------------------------------------------------------|
A|---------------------------------------------------------------|
E|---------------------------------------------------------------|

Continue Song
02:49-02:56 
e|---------------------------------------------------------------|
B|---------------------------------------------------------------|
G|---------------------------------------------------------------|
D|---------------------------------------------------------------|
A|--6-8-9-8---6-8-9-8---6-8-9-8-11-9-8-6-8-9-8-------------------|
E|--4-6-7-6---4-6-7-6---4-6-7-6-9--7-6-4-6-7-6-------------------|

BASS
02:57-03:08
e|---------------------------------------------------------------|
B|---------------------------------------------------------------|
G|---------------------------------------------------------------|
D|---------------------------------------------------------------|
A|---------------------------------------------------------------|
E|--4-6-------6-6-6-6-6-6-2-2-2-4-4-4--6-6-6-6-6-6-2-2-2-4-4-4---|

Guitar
3:08-11
e|---------------------------------------------------------------|
B|---------------------------------------------------------------|
G|---------------------------------------------------------------|
D|---------------------------------------------------------------|
A|--6-8-9-8-11-9-8-6-8-9-8---------------------------------------|
E|--4-6-7-6-9--7-6-4-6-7-6---------------------------------------|

BASS
03:12-03:24
e|--------------------------------------------------------------------|
B|--------------------------------------------------------------------|
G|--------------------------------------------------------------------|
D|--------------------------------------------------------------------|
A|--------------------------------------------------------------------|
E|--6-6-6-6-6-6-2-2-2-4-4-4--6-6-6-6-6-6-2-2-2-4-4-4--6-6-6-6-6-6-2-2-|
            
Submit corrections

comments powered by Disqus
↑ Back to top | Danny Elfman Tabs for The Little Things. Lyrics for acoustic guitar and electric guitar. Tablatures and chords are parodies/interpretations of the original songs. You may use it for private study, scholarship, research or language learning purposes only