» » »

Danny Elfman, The Little Things Bass tabs (ver.1)

Artists:  A B C D E F G H I J K L M N O P Q R S T U V W X Y Z # 

The Little Things Bass tabs (ver.1)

Danny Elfman Tabs
 Rating:
4/5 (4 votes)
The Little Things lessons Tabs too difficult? Try these video lessons and learn fast
1
                Pretty Straight Forward, I am a guitar player and I made this for the guy
That plays bass in my band. i don't know if it's 100% correct.



Riff 1:

G|:---------------------------------------------------------------|
D|:---------------------------------------------------------------|
A|:-----------------------------4---------------------------------|
E|:-4-6-7-6---4-6-7-6---4-6-7-6---6-7-6-4-6-7-6-------------------|


Riff 2:

G|:----------------------------|
D|:----------------------------|
A|:-------4--------------------|
E|:-6-6-6---2-2--4-------------|


Riff 1a:

G|:-------------------------------------------|
D|:-------------------------------------------|
A|:---------4---------------------------------|
E|:-4-6-7-6---6-7-6-4--6-7-6------------------|

Riff 3:

G|:---------------------------------------------|
D|:------------------------------------4-4-4-4--|
A|:---------------6--6--6--6-4/6-6-6------------|
E|:-4---4---4---4-------------------------------|

Riff 3: continued

G|:-------------------------------------------------------------|
D|:-------------------------------------------------------------|
A|:-------------------------------------------------------------|
E|:-4-4-2/4--4-2/4-4-4-4-2/4-4-2/4-4--4-2/4-2/4-2/4-4-4-4-4-----|


Full Song:

Riff 1: 2X

Riff 2: 3X

Riff 1a: 1X

Riff 2: 4X

Riff 1a: 1X

Riff 3: 1X

Riff 1: 2X

Riff 2: 3X

Riff 1a: 1X

Riff 2: 3X

Riff 1a: 1X

Riff 3: 1X

Riff 1: 2X

Riff 2: 2X

Riff 1a: 1x

Riff 2: 3X
            
Submit corrections

comments powered by Disqus
↑ Back to top | Danny Elfman Bass for The Little Things. Lyrics for acoustic guitar and electric guitar. 1 Tablatures and chords are parodies/interpretations of the original songs. You may use it for private study, scholarship, research or language learning purposes only