>
 >
When Will I See You

When Will I See You Guitar Tabs

Danko Jones - When Will I See You chords, tabs, tablatures, lyrics

Guitar lessons | Add/correct | Request | Top 50 tabs Artists:  A B C D E F G H I J K L M N O P Q R S T U V W X Y Z 0-9

When Will I See You Guitar Tabs – Danko Jones

CD, Sheet music, Poster

Do you like When Will I See You? Share with your friends now
TabsTabs v2
Band: Danko Jones

Intro

e|-5--7---8--5--|
B|-5--7---8--7--|
G|-5--8---9--7--| It goes Am B7 C D Am B7 two times
D|-7--7--10--7--| how to pick 'em is up to you, I couldn't figure it out
A|-7--9--10--5--|
E|-5--7---8-----|
  Am B7   C  D

Verse:
e|---------------------------------------------------|
B|---------------------------------------------------|
G|---------------------------------------------------|
D|-7-10-10---7-10-10---7-9---------------------------| Played 8 times
A|-7-10-10---7-10-10---7-9---------------------------|
E|-5--8--8---5--8--8---5-7---------------------------|

Chorus:
e|-------------|
B|-------------|
G|-------------| This bit comes before the chorus
D|-5-------7-5-| and is played one time.
A|---7-5---7-5-|
E|-------7-5-3-|


e|--------------------------------------------------------|
B|--------------------------------------------------------|
G|-9-9------------------------------7-7-------------------|
D|-9-9--7-7-7--10-10-10---10-10-10--7-7--5-5-5--9--9-9-9--| 2 times
A|-7-7--7-7-7--10-10-10---10-10-10--5-5--5-5-5--9--9-9-9--|
E|------5-5-5---8--8--8----8--8--8-------3-3-3--7--7-7-7--| 

e|--------------------------------------------------------|
B|--------------------------------------------------------|
G|-9-9------------------------------7-7-------------------|
D|-9-9--7-7-7--10--10--10--10-------7-7--5-5-5--9--9-9-9--| 1 time
A|-7-7--7-7-7--10--10--10--10-------5-5--5-5-5--9--9-9-9--|
E|------5-5-5---8---8---8---8------------3-3-3--7--7-7-7--|

e|--------------------------------------------------------|
B|--------------------------------------------------------| let the last
G|-9-9------------------------------7-7-------------------| chord ring
D|-9-9--7-7-7--10--10--10--10-------7-7--5-5-5--9~~-------| 
A|-7-7--7-7-7--10--10--10--10-------5-5--5-5-5--9~~-------| played 1 time
E|------5-5-5---8---8---8---8------------3-3-3--7~~-------|
                                  


after the chorus, the verse starts again then one more chorus and then
this riff:
e|-----------------------------------------------------------------|
B|-----------------------------------------------------------------|
G|-----------------------------------------------------------------| two
D|-----------------------------------------------------------------| times
A|-3-----3-----3-----3-----3---3---2-----2-----2-----2-----2---2---|
E|---0-0---0-0---0-0---0-0---0---0---0-0---0-0---0-0---0-0---0---0-|

e|-----------------------------------------------------------------|
B|-----------------------------------------------------------------|
G|---------------------------------------------------------5-5-5-5-| one
D|---------------------------------------------------------5-5-5-5-| time
A|-5-----5-----5-----5-----5---5---3-----3-----3-----3-----3-3-3-3-|
E|---0-0---0-0---0-0---0-0---0---0---0-0---0-0---0-0---0-0---------|

next we have the verse with some variations:
e|---------------------------------------------------|
B|---------------------------b9r-7-------------------|
G|---------------------------b9r-7-------------------| "b9r" means bend the
D|-7-10-10---7-10-10---7-9---------------------------| 9th fret and release
A|-7-10-10---7-10-10---7-9---------------------------| the bend
E|-5--8--8---5--8--8---5-7---------------------------|

e|---------------------------------------------------|
B|---------------------------b9r-7-------------------|
G|---------------------------b9r-7-------------------|
D|-7-10-10---7-10-10---7-9---------------------------|
A|-7-10-10---7-10-10---7-9---------------------------|
E|-5--8--8---5--8--8---5-7---------------------------|

e|---------------------------------------------------|
B|---------------------------------------------------|
G|---------------------------------7~~---------------| "h" means hammer on
D|-7-10-10---7-10-10---7-9---7-h-9-------------------| "~" is a fency vibrato
A|-7-10-10---7-10-10---7-9---------------------------|
E|-5--8--8---5--8--8---5-7---------------------------|

e|---------------------------------------------------|
B|---------------------------------------------------|
G|---------------------------------------------------|
D|-7-10-10---7-10-10---7-9---------------------------|
A|-7-10-10---7-10-10---7-9---------------------------|
E|-5--8--8---5--8--8---5-7---------------------------|

e|---------------------------------------------------|
B|---------------------------------------------------| this one is played 4
G|---------------------------------------------------| times while he's 
D|-7-10-10---7-10-10---7-9---x--x--x--x--------------| singin'
A|-7-10-10---7-10-10---7-9---x--x--x--x--------------|
E|-5--8--8---5--8--8---5-7---x--x--x--x--------------|

then the chorus comes a last time, after that your just have to say
"all i need to see is a sign" and you're done.

so enjoy and leave a comment.





Comments


Popular Danko Jones tabs & chords
The Rules Bass Tabs
Want You Bass Tabs
Caramel City Tabs
Lovercall 1 Tabs
Sound Of Love Tabs
Sound Of Love 1 Tabs
Sticky Situation 2 Tabs
The Sore Looser Tabs
Wait A Minute Tabs
Word Is Bond Tabs


Song lyrics



↑ Back to top | Tablatures and chords are parodies/interpretations of the original songs. You may use it for private study, scholarship, research or language learning purposes only
© 2014 AZChords.com Contact us | Privacy policy | DMCA | Add/correct tabs | Request tabs | Top 50 tabs