» » »

King Of Magazines Tabs (ver.2)

Artists:  A B C D E F G H I J K L M N O P Q R S T U V W X Y Z # 

King Of Magazines Tabs (ver.2)

Danko Jones
Rating:
0/5 (0 votes)

Hard to play? Try these video lessons and learn fast.
                                                                                     
                                                                     
King of Magazines By Danko Jones                                                                
                                             

Main Riff
============

e|-----------------------------------------------------------------------------------------------|
B|-----------------------------------------------------------------------------------------------|
G|-----------------------------------------------------------------------------------------------|
D|---4-7-7-7-9-9-9-6-6-6-----6-6-6---------------------------------------------------------------|
A|-7---------7-7-7-4-4-4-----4-4-4-2-2-2-4-4-4---REPEAT------------------------------------------|
E|-----------------------4-5-------0-0-0-2-2-2---------------------------------------------------|

Fill chord
============
e|-14---|
B|-14---|
G|-11---|
* played once per beat (4ths) starting after 4 repeat of the main riff

Pre-chorus
==========
E|-0-0-0-0-0-0-0-0--REPEAT-X2--------------------------------------------------------------------|


Chorus
=======
Guitar1:  Variation on main riff
e|-----------------------------------------------------------------------------------------------|
B|-----------------------------------------------------------------------------------------------|
G|-9-9-9-9---------------------------------------------------------------------------------------|
D|-7-7-7-7-9-9-9-6-6-6-----6-6-6-----------------------------------------------------------------|
A|---------7-7-7-4-4-4-----4-4-4-2-2-2-4-4-4-----------------------------------------------------|
E|---------------------4-5-------0-0-0-2-2-2-----------------------------------------------------|

Guitar2:
e|-----------------------------------------------------------------------------------------------|
B|-----------------------------------------------------------------------------------------------|
G|-11-11-11-11-11-11-11-11-1--11-13-13-13-13-13-13-13/14\13-11-11-11-11--------------------------|
D|-x--x--x--x--x--x--x--x--x--x--x--x--x--x--x--x--x--x--x--x--x--x--x---------------------------|
A|-9--9--9--9--9--9--9--9--9--9--11-11-11-11-11-11-11/12\11-9--9--9--9---------------------------|
E|-----------------------------------------------------------------------------------------------|


Bridge
=======
Both guitars
e|-----------------------------------------------------------------------------------------------|
B|-----------------------------------------------------------------------------------------------|
G|-----------------------------------------------------------------------------------------------|
D|-----------------------------------------------------------------------------------------------|
A|-7-7-7-9---------------------------------------------------------------------------------------|
E|--------7-7-7-9-5-7-9-7-5-0-0-0-5-0-2- REPEAT x2-----------------------------------------------|

On the third
E|-5-7-9-7-5-0-0-0-5-0-2-------------------------------------------------------------------------|

Which leads directly into (slightly palm muted)
E|-0-0-12-12-0-0-12-12-----REPEATx4--------------------------------------------------------------|

Then the guitar pauses for the drum solo/interlude then back to the chorus until the end
            
Hard to play? Try these video lessons and learn fast. | Correct




comments powered by Disqus
↑ Back to top | Tablatures and chords are parodies/interpretations of the original songs. You may use it for private study, scholarship, research or language learning purposes only