» » »

Danko Jones, Forget My Name Tabs (ver.1)

Artists:  A B C D E F G H I J K L M N O P Q R S T U V W X Y Z # 

Forget My Name Tabs (ver.1)

Danko Jones Tabs
 Rating:
4.6/5 (11 votes)
Forget My Name lessons Tabs too difficult? Try these video lessons and learn fast
1
                Danko Jones - Forget My Name
----------------------------

Artist    : Danko Jones
Album     : We Sweat Blood
Song      : Forget My Name
Words     : Danko Jones
Music     : Danko Jones


Chords
   Db5      Ab5      Bb5      Gb5
e -----    -----    -----    -----
B -----    -----    -----    -----
G --6--    -----    -----    -----
D --6--    --6--    --8--    --4--
A --4--    --6--    --8--    --4--
E -----    --4--    --6--    --2--

Verse 1:
                                             Ab5
                                          Db5   Bb5   12x Gb5     Ab5
e||------------------------------------|----------------|------------------|
B||------------------------------------|o--------------o|------------------|
G||-- DRUM INTRO ----------------------|---6------------|------------------|
D||------------------------------------|---6--6--8------|--4--4----6--6----|
A||------------------------------------|o--4--6--8-----o|--4--4----6--6----|
E||------------------------------------|------4--6------|--2--2----4--4----|

                                   Gb5     Ab5
e||-----------------------------------------------|
B||-----------------------------------------------|
G||-----------------------------------------------|
D||---------------------------------4--4----6--6--|
A||------4-6-------------4-6--------4--4----6--6--|
E||--4-6-----4-6-x---4-6-----4-6-x--2--2----4--4--|

e||---------------------------------|
B||---------------------------------|
G||---------------------------------|
D||---------------------------------|
A||------4-6-------------4-6--------|
E||--4-6-----4-6-x---4-6-----4-6-x--|


Verse 2:
        Ab5
     Db5   Bb5    8x Gb5     Ab5
e||----------------|------------------|
B||o--------------o|------------------|
G||---6------------|------------------|
D||---6--6--8------|--4--4----6--6----|
A||o--4--6--8-----o|--4--4----6--6----|
E||------4--6------|--2--2----4--4----|


                                   Gb5     Ab5
e||-----------------------------------------------|
B||-----------------------------------------------|
G||-----------------------------------------------|
D||---------------------------------4--4----6--6--|
A||------4-6-------------4-6--------4--4----6--6--|
E||--4-6-----4-6-x---4-6-----4-6-x--2--2----4--4--|

e||---------------------------------|
B||---------------------------------|
G||---------------------------------|
D||---------------------------------|
A||------4-6-------------4-6--------|
E||--4-6-----4-6-x---4-6-----4-6-x--|

                                      Gb5       Ab5       Db5
e||---------------------------------|---------|---------|-----------|
B||---------------------------------|---------|---------|-----------|
G||---------------------------------|---------|---------|--6-6-6----|
D||---------------------------------|--4------|--6------|--6-6-6----|
A||------4-6-------------4-6--------|--4------|--6------|--4-4-4----|
E||--4-6-----4-6-x---4-6-----4-6-x--|--2------|--4------|-----------|


Bridge:
      pm...............................................
e||--------------------------------------------------------------------|
B||--------------------------------------------------------------------|
G||--------------------------------------------------------------------|
D||--------------------------------------------------------------------|
A||------------------------------------------------------6~~----4~~----|
E||---0-4-5-6-0-4-5-6-0-4-5-6-0-4-5-6-0-4-5-6-0-4-5-6-0------6---------|

      pm...............................................
e||--------------------------------------------------------------------|
B||--------------------------------------------------------------------|
G||--------------------------------------------------------------------|
D||--------------------------------------------------------------------|
A||------------------------------------------------------6~~----4~~----|
E||---0-4-5-6-0-4-5-6-0-4-5-6-0-4-5-6-0-4-5-6-0-4-5-6-0------6---------|

      pm...............................................
e||--------------------------------------------------------------------|
B||--------------------------------------------------------------------|
G||--------------------------------------------------------------------|
D||--------------------------------------------------------------------|
A||------------------------------------------------------6~~----4~~----|
E||---0-4-5-6-0-4-5-6-0-4-5-6-0-4-5-6-0-4-5-6-0-4-5-6-0------6---------|

      pm...............................................         Db5
e||-------------------------------------------------------------------------|
B||-------------------------------------------------------------------------|
G||-------------------------------------------------------------6-6-6-6-6-6-|
D||-------------------------------------------------------------6-6-6-6-6-6-|
A||------------------------------------------------------6~~----4-4-4-4-4-4-|
E||---0-4-5-6-0-4-5-6-0-4-5-6-0-4-5-6-0-4-5-6-0-4-5-6-0------6--------------|


Ending:
                                       Gb5       Ab5                       4x
e||---------------------------------|----------|--------|-------------------||
B||---------------------------------|----------|--------|o-----------------o||
G||---------------------------------|----------|--------|-------------------||
D||---------------------------------|--4-------|--6-----|-------------------||
A||------4-6-------------4-6--------|--4-------|--6-----|o------4-6--------o||
E||--4-6-----4-6-x---4-6-----4-6-x--|--2-------|--4-----|---4-6-----4-6-x---||


Db5 Ab5 Bb5          Db5 Ab5 Bb5
             Hotshot walking up and down the block
             Db5 Ab5 Bb5            Db5 Ab5 Bb5
             I like it how her mini-skirt keeps crawling up
             Db5 Ab5 Bb5              Db5 Ab5 Bb5
             She turns boys into toys winning all of their affection
             Db5 Ab5 Bb5                Db5 Ab5 Bb5
             She gives me such a shock, Baby I am no exception
             Db5 Ab5 Bb5          Db5 Ab5 Bb5
             I always get too shy each time she gives me the eye
             Db5 Ab5 Bb5           Db5 Ab5 Bb5
             I got it bad but it's getting worse I can't deny...


             Gb5          Ab5
             She makes me
             Forget My Name
             Gb5          Ab5
             She makes me
             Forget My Name


 Db5 Ab5 Bb5             Db5 Ab5 Bb5
             Little Miss Evil got a way with people
             Db5 Ab5 Bb5              Db5 Ab5 Bb5
             She's got them under her thumb, wrapped around her finger
             Db5 Ab5 Bb5            Db5 Ab5 Bb5
             I get a shaky leg when she sees me staring at her
             Db5 Ab5 Bb5              Db5 Ab5 Bb5
             I don't know what to do, Baby I can only shiver

             Gb5          Ab5
             She makes me
             Forget My Name
             Gb5          Ab5
             She makes me
             Forget My Name

             Bridge:
             [nc]
             I wanna, I wanna, I wanna Burn In Hell With You
             [nc]
             I wanna, I wanna, I wanna Burn In Hell With You
             [nc]                                                Db5
             I wanna, I wanna, I wanna, I wanna, I Wanna Burn In Hell!


Db5 Ab5 Bb5          Db5 Ab5 Bb5
             Hotshot walking up and down the block
             Db5 Ab5 Bb5          Db5 Ab5 Bb5
             like it how her mini-skirt keeps crawling up
             Db5 Ab5 Bb5              Db5 Ab5 Bb5
             She turns boys into toys winning all of their affection
             Db5 Ab5 Bb5                Db5 Ab5 Bb5
             She gives me such a shock, Baby I am no exception
             Db5 Ab5 Bb5           Db5 Ab5 Bb5
             I know a lot of girls but she's one of a kind
             Db5 Ab5 Bb5            Db5 Ab5 Bb5
             I'm gonna burn in hell but not without her by my side

             Gb5          Ab5
             She makes me
             Forget My Name
             Gb5          Ab5
             She makes me
             Forget My Name
             Gb5          Ab5
             She makes me
             Forget My Name
            
Submit corrections

comments powered by Disqus
↑ Back to top | Danko Jones Tabs for Forget My Name. Lyrics for acoustic guitar and electric guitar. 1 Tablatures and chords are parodies/interpretations of the original songs. You may use it for private study, scholarship, research or language learning purposes only