» » »

Danko Jones, Don't Fall In Love Tabs (ver.2)

Artists:  A B C D E F G H I J K L M N O P Q R S T U V W X Y Z # 

Don't Fall In Love Tabs (ver.2)

Danko Jones Tabs
 Rating:
4.2/5 (5 votes)
Don't Fall In Love lessons Tabs too difficult? Try these video lessons and learn fast
1
                Danko Jones - Don't Fall In Love

Instrument: Guitar
Tuning: eBGDAE



Intro

Guitar #1
e||---------------------------------------------------------------|
B||---------------------------------------------------------------|
G||-6-6-6-6-6-6-6-6-6-6-6-6-6-6-6---------------------------------|
D||-6-6-6-6-6-6-6-6-6-6-6-6-6-6-6-7---8-8-8-8-8-8-8-8-8-8-8-8-8-8-|
A||-4-4-4-4-4-4-4-4-4-4-4-4-4-4-4-7---8-8-8-8-8-8-8-8-8-8-8-8-8-8-|
E||-------------------------------5---6-6-6-6-6-6-6-6-6-6-6-6-6-6-|

Guitar #2
e||------------------------|-9------------------------|
B||-------------9--10--11--|---11---9-----------------|
G||-------6--8-------------|----------9---10----------|
D||-6--8-------------------|-----------------11-------|
A||------------------------|--------------------------|
E||------------------------|--------------------------|


Verse

e||---------------------------------------------------------------|
B||---------------------------------------------------------------|
G||-6-6-6-6-6-6-6-6-6-6-6-6-6-6-6---------------------------------|
D||-6-6-6-6-6-6-6-6-6-6-6-6-6-6-6-7---8-8-8-8-8-8-8-8-8-8-8-8-8-8-|
A||-4-4-4-4-4-4-4-4-4-4-4-4-4-4-4-7---8-8-8-8-8-8-8-8-8-8-8-8-8-8-|
E||-------------------------------5---6-6-6-6-6-6-6-6-6-6-6-6-6-6-| x2


Chorus

e||---------------------------------------------------------------|
B||---------------------------------------------------------------|
G||-6-6-6-6-6-6-6-6-6-6-6-6-6-6-6---------------------------------|
D||-6-6-6-6-6-6-6-6-6-6-6-6-6-6-6-7---8-8-8-8-8-8-7---8-8-8-8-8-8-|
A||-4-4-4-4-4-4-4-4-4-4-4-4-4-4-4-7---8-8-8-8-8-8-7---8-8-8-8-8-8-|
E||-------------------------------5---6-6-6-6-6-6-5---6-6-6-6-6-6-| x2


Post-Chorus

Guitar #1
e||----------------------|
B||----------------------|
G||-------------6--------|
D||-6-6-6-8-8-8-6--------|
A||-6-6-6-8-8-8-4--------|
E||-4-4-4-6-6-6----------| x4

Guitar #2 on last one
e||-------13--9----|
B||-11-9-----------|
G||----------------|
D||----------------|
A||----------------|
E||----------------|


Chorus

Guitar #1
e||---------------------------------------------------------------|
B||---------------------------------------------------------------|
G||-6-6-6-6-6-6-6-6-6-6-6-6-6-6-6---------------------------------|
D||-6-6-6-6-6-6-6-6-6-6-6-6-6-6-6-7---8-8-8-8-8-8-7---8-8-8-8-8-8-|
A||-4-4-4-4-4-4-4-4-4-4-4-4-4-4-4-7---8-8-8-8-8-8-7---8-8-8-8-8-8-|
E||-------------------------------5---6-6-6-6-6-6-5---6-6-6-6-6-6-| x4

e||----------------------|
B||----------------------|
G||-------------6--------|
D||-6-6-6-8-8-8-6--------|
A||-6-6-6-8-8-8-4--------|
E||-4-4-4-6-6-6----------| 

Guitar #2
e||-----------------------------|------------------------8----|
B||-9---------------------------|-9------------------------9--|
G||---9---10--------------------|---9---10--------------------|
D||----------11-----------------|----------11-----------------|
A||-----------------------------|-----------------------------|
E||-----------------------------|-----------------------------|

e||-----------------------------|-----------------------------|
B||-9---------------------------|-9---------------------------|
G||---9---10--------------------|---9---10--------------------|
D||----------11-----------------|----------11-----------------|
A||-----------------------------|-----------------------------|
E||-----------------------------|-----------------------------|


Verse

Guitar #1
e||---------------------------------------------------------------|
B||---------------------------------------------------------------|
G||-6-6-6-6-6-6-6-6-6-6-6-6-6-6-6---------------------------------|
D||-6-6-6-6-6-6-6-6-6-6-6-6-6-6-6-7---8-8-8-8-8-8-8-8-8-8-8-8-8-8-|
A||-4-4-4-4-4-4-4-4-4-4-4-4-4-4-4-7---8-8-8-8-8-8-8-8-8-8-8-8-8-8-|
E||-------------------------------5---6-6-6-6-6-6-6-6-6-6-6-6-6-6-| x4

Guitar #2
   1:49                      1:57                 2:04
e||-------18-16-------------|-16/18-16-18--------|----------------|
B||-16-14-------16----------|--------------------|----------------|
G||-------------------------|--------------------|-10-11-10-11-10-|
D||-------------------------|--------------------|----------------|
A||-------------------------|--------------------|----------------|
E||-------------------------|--------------------|----------------|


Pre-Chorus

e||---------------------------------|
B||---------------------------------|
G||---------------------------------|
D||-4-4-4-4-4-4-4-4-8-8-8-8-8-8-8-8-|
A||-4-4-4-4-4-4-4-4-8-8-8-8-8-8-8-8-|
E||-2-2-2-2-2-2-2-2-6-6-6-6-6-6-6-6-| x3

e||---------------------------------|
B||---------------------------------|
G||---------------------------------|
D||-6-6-6-6-6-6-6-6-6-6-6-6-6-6-6-6-|
A||-6-6-6-6-6-6-6-6-6-6-6-6-6-6-6-6-|
E||-4-4-4-4-4-4-4-4-4-4-4-4-4-4-4-4-|


Chorus

Guitar #1 palm muted
e||---------------------------------------------------------------|
B||---------------------------------------------------------------|
G||-6-6-6-6-6-6-6-6-6-6-6-6-6-6-6---------------------------------|
D||-6-6-6-6-6-6-6-6-6-6-6-6-6-6-6-7---8-8-8-8-8-8-7---8-8-8-8-8-8-|
A||-4-4-4-4-4-4-4-4-4-4-4-4-4-4-4-7---8-8-8-8-8-8-7---8-8-8-8-8-8-|
E||-------------------------------5---6-6-6-6-6-6-5---6-6-6-6-6-6-| x2

Guitar #2
e||----------------|
B||-9--------------|
G||---9---10-------|
D||----------11----|
A||----------------|
E||----------------|


Pre-Chorus
e||----------------------|
B||----------------------|
G||-------------6--------|
D||-6-6-6-8-8-8-6--------|
A||-6-6-6-8-8-8-4--------|
E||-4-4-4-6-6-6----------| x4


Chorus
Guitar #1
e||---------------------------------------------------------------|
B||---------------------------------------------------------------|
G||-6-6-6-6-6-6-6-6-6-6-6-6-6-5-4---------------------------------|
D||-6-6-6-6-6-6-6-6-6-6-6-6-6-5-4-7---8-8-8-8-8-8-7---8-8-8-8-8-8-|
A||-4-4-4-4-4-4-4-4-4-4-4-4-4-3-2-7---8-8-8-8-8-8-7---8-8-8-8-8-8-|
E||-------------------------------5---6-6-6-6-6-6-5---6-6-6-6-6-6-| x4

Guitar #2
e||-----------------------------|-----------------------------|
B||-9---------------------------|-9---------------------------|
G||---9---10--------------------|---9---10--------------------|
D||----------11-----------------|----------11-----------------|
A||-----------------------------|-----------------------------|
E||-----------------------------|-----------------------------|

e||-----------------------------|-----------------------------|
B||-9---------------------------|-9---------------------------|
G||---9---10--------------------|---9---10--------------------|
D||----------11-----------------|----------11-----------------|
A||-----------------------------|-----------------------------|
E||-----------------------------|-----------------------------|


End

e||----------------------|
B||----------------------|
G||-------------6--------|
D||-6-6-6-8-8-8-6--------|
A||-6-6-6-8-8-8-4--------|
E||-4-4-4-6-6-6----------|
            
Submit corrections

comments powered by Disqus
↑ Back to top | Danko Jones Tabs for Don't Fall In Love. Lyrics for acoustic guitar and electric guitar. 1 Tablatures and chords are parodies/interpretations of the original songs. You may use it for private study, scholarship, research or language learning purposes only