>
 >
So Fine

So Fine Guitar Tabs

Daniel Wesley - So Fine chords, tabs, tablatures, lyrics

Guitar lessons | Add/correct | Request | Top 50 tabs Artists:  A B C D E F G H I J K L M N O P Q R S T U V W X Y Z 0-9

So Fine Guitar Tabs – Daniel Wesley

CD, Sheet music, Poster

Do you like So Fine? Share with your friends now
Tabs
-------------------------------------------------------------------------------
-------------------------------------------------------------------------------

Tuning: Standard

Another wicked song by Daniel Wesley. Sounds pretty similar to Jack Johnson, if you like 
you should check him out if you haven't already.

Intro: Repeat twice
e|---------------------------------------------------------------------------------------|
B|---------------------------------------------------7-9-7-------------------------------|
G|---------6---------6/8-6-------------6---------6/8---------------6----------6/8-6------|
D|-----6/8---8-6-----------8-6-----6/8---8-6-------------------6/8---8-6------------8-6~-|
A|---------------------------------------------------------------------------------------|
E|-4-4-----------2-2-----------4-4-----------2-2-----------4-4------------2-2------------|

-----------------------------|
-----------------------------|
---------3-----(4)-4/6-(6)-6-|
-----4-6---6-4~(4)-4/6-(6)-6-|
----------------2--2/4--4--4-|
-0-0-------------------------|

Verse 1: Repeat three times
e|-------4-------------6-------------2---x--2~--------|
B|-------4-------------6-------------2---x--2~--------|
G|-------4-------------6-------------3---x--3~--------|
D|------(6)-----------(8)-----------(4)--x-(4)--------|
A|------(6)-----------(8)-----------(4)--x-(4)--------|
E|(4-4)-(4)-------(6)-(6)-----(2-2)-(2)--x-(2)--------|
              "You're so     fine."


Verse 2: Repeat once
e|-------0~------------0~------------2~------------2~---|
B|-------0~------------0~------------2~------------2~---|
G|-------1~------------1~------------3~------------3~---|
D|-2~------------2~------------4~------------4~---------|
A|-2~------------2~------------4~------------4~---------|
E|-0~------------0~------------2~------------2~---------|
                 "You make me go------------------------|

Verse 1: Repeat three times
e|-------4-------------6-------------2---x--2~--------|
B|-------4-------------6-------------2---x--2~--------|
G|-------4-------------6-------------3---x--3~--------|
D|------(6)-----------(8)-----------(4)--x-(4)--------|
A|------(6)-----------(8)-----------(4)--x-(4)--------|
E|(4-4)-(4)-------(6)-(6)-----(2-2)-(2)--x-(2)--------|

Verse 2: Repeat once
e|-------0~------------0~------------2~------------2~-|
B|-------0~------------0~------------2~------------2~-|
G|-------1~------------1~------------3~------------3~-|
D|-2~------------2~------------4~------------4~-------|
A|-2~------------2~------------4~------------4~-------|
E|-0~------------0~------------2~------------2~-------|

Intro: Repeat once
e|---------------------------------------------------------------------------------------|
B|---------------------------------------------------7-9-7-------------------------------|
G|---------6---------6/8-6-------------6---------6/8---------------6----------6/8-6------|
D|-----6/8---8-6-----------8-6-----6/8---8-6-------------------6/8---8-6------------8-6~-|
A|---------------------------------------------------------------------------------------|
E|-4-4-----------2-2-----------4-4-----------2-2-----------4-4------------2-2------------|
    "do-do-do-do-do"
-----------------------------|
-----------------------------|
---------3-----(4)-4/6-(6)-6-|
-----4-6---6-4~(4)-4/6-(6)-6-|
----------------2--2/4--4--4-|
-0-0-------------------------|

Solo: Coming soon

Verse 1: Repeat three times (over top of solo)
e|-------4-------------6-------------2---x--2~--------|
B|-------4-------------6-------------2---x--2~--------|
G|-------4-------------6-------------3---x--3~--------|
D|------(6)-----------(8)-----------(4)--x-(4)--------|
A|------(6)-----------(8)-----------(4)--x-(4)--------|
E|(4-4)-(4)-------(6)-(6)-----(2-2)-(2)--x-(2)--------|

Verse 2: Repeat once
e|-------0~------------0~------------2~------------2~-|
B|-------0~------------0~------------2~------------2~-|
G|-------1~------------1~------------3~------------3~-|
D|-2~------------2~------------4~------------4~-------|
A|-2~------------2~------------4~------------4~-------|
E|-0~------------0~------------2~------------2~-------|

Verse 1: Repeat three times
e|-------4-------------6-------------2---x--2~--------|
B|-------4-------------6-------------2---x--2~--------|
G|-------4-------------6-------------3---x--3~--------|
D|------(6)-----------(8)-----------(4)--x-(4)--------|
A|------(6)-----------(8)-----------(4)--x-(4)--------|
E|(4-4)-(4)-------(6)-(6)-----(2-2)-(2)--x-(2)--------|

Verse 2: Repeat three times
e|-------0~------------0~------------2~------------2~-|
B|-------0~------------0~------------2~------------2~-|
G|-------1~------------1~------------3~------------3~-|
D|-2~------------2~------------4~------------4~-------|
A|-2~------------2~------------4~------------4~-------|
E|-0~------------0~------------2~------------2~-------|

Outro: Repeat four times (fade out)
e|---------------------------------------------------------------------------------------|
B|---------------------------------------------------7-9-7-------------------------------|
G|---------6---------6/8-6-------------6---------6/8---------------6----------6/8-6------|
D|-----6/8---8-6-----------8-6-----6/8---8-6-------------------6/8---8-6------------8-6~-|
A|---------------------------------------------------------------------------------------|
E|-4-4-----------2-2-----------4-4-----------2-2-----------4-4------------2-2------------|

-----------------------------|
-----------------------------|
---------3-----(4)-4/6-(6)-6-|
-----4-6---6-4~(4)-4/6-(6)-6-|
----------------2--2/4--4--4-|
-0-0-------------------------|

| /  slide up
| \  slide down
| h  hammer-on
| p  pull-off
| ~  vibrato
| +  harmonic
| x  Mute note
===============================================================================





Comments


Popular Daniel Wesley tabs & chords
Fade Me Tabs
Lonely Life Tabs
Nyquil Tabs
One Man Mission Tabs
Ooo Oh Tabs
Ooo Ohh 1 Tabs
Pilgrimige Tabs
Time For Leaving Tabs
Itll Be You Ukulele
Johnny Ukulele


Song lyrics



↑ Back to top | Tablatures and chords are parodies/interpretations of the original songs. You may use it for private study, scholarship, research or language learning purposes only
© 2014 AZChords.com Contact us | Privacy policy | DMCA | Add/correct tabs | Request tabs | Top 50 tabs