» » »

So Fine Tabs (ver.1)

Artists:  A B C D E F G H I J K L M N O P Q R S T U V W X Y Z # 

So Fine Tabs (ver.1)

Daniel Wesley
Rating:
2/5 (1 vote)

Hard to play? Try these video lessons and learn fast.
                (Intro)
This tab is correct and its a catchy tune! have fun!
Let me know how it goes

-------------------------------------------------------------------------|
-----------------------------------------------7-9-7---------------------|
--------6-------------------------6---------/8--------------6------------|
-----/8---8-6-----/8-6---------/8---8-6------------------/8---8-6--------|
-----------------------8-6-----------------------------------------------|
-4-4----------2-2----------4-4----------2-2----------4-4----------2-2----|
  (let bass notes ring)


-------------------------------------------------------------------------|
-------------------------------------------------------------------------|
--/8-6-------------3-------3-3-3--/-6-6-5--------------------------------|
-------8-6~~~~--/6---6-4---4-4-4--/-6-6-5--------------------------------|
---------------------------4-4-4--/-6-6-5--------------------------------|
-----------0-0-----------------------------------------------------------|

Repeat this 2x.
            
Hard to play? Try these video lessons and learn fast. | Correct




comments powered by Disqus
↑ Back to top | Tablatures and chords are parodies/interpretations of the original songs. You may use it for private study, scholarship, research or language learning purposes only