» » »

Daniel Wesley, Driftin' Tabs (ver.1)

Artists:  A B C D E F G H I J K L M N O P Q R S T U V W X Y Z # 

Driftin' Tabs (ver.1)

Daniel Wesley Tabs
 Rating:
4/5 (4 votes)
Driftin' lessons Tabs too difficult? Try these video lessons and learn fast
                -------------------------------------------------------------------------------
-------------------------------------------------------------------------------

Tuning: Standard

This is another excellent song by The Daniel Wesley Band. Definitely one of my favorites
their album. I think there may be two guitars (although they only have one guitar
I tried to incorporate the sliding, and the cute little guitar dabblin' together. Feel 
to leave any comments or corrections! Enjoi. :)

Intro: Play four times.
e|---------5h7p5-------------7h9p7-------------2h4p2-------------2-0~------|
B|-3/5---5-------5---5/7---7-------7---1/2---2-------2---2/3---3------3~---|
G|-4/6-6-----------6-6/7-7-----------7-1/2-2-----------2-2/4-4-------------|
D|-------------------------------------------------------------------------|
A|-------------------------------------------------------------------------|
E|-------------------------------------------------------------------------|
  "Drifti------------------------------------------------------------------|n on my own."

Verse: Play four times.
e|---------5h7p5-------------7h9p7-------------2h4p2-------------2-0~----|
B|---5---5-------5-----7---7-------7-----2---2-------2-----3---3------3~-|
G|-6---6-----------6-7---7-----------7-2---2-----------2-4---4-----------|
D|-----------------------------------------------------------------------|
A|-----------------------------------------------------------------------|
E|-----------------------------------------------------------------------|
  "When I saw you, waitin' along the waves,           keepin' me informed,
                     how you wanna' kno-------w,      when I'm leaving..."

Chorus: Play twice.
e|---------5h7p5-------------7h9p7-------------2h4p2-------------2-0~------|
B|---5---5-------5-----7---7-------7-----2---2-------2-----3---3------3~---|
G|-6---6-----------6-7---7-----------7-2---2-----------2-4---4-------------|
D|-------------------------------------------------------------------------|
A|-------------------------------------------------------------------------|
E|-------------------------------------------------------------------------|
  "Drifti------------------------------------------------------------------|n on my own."

*Now, repeat the verse (x4), and the chorus (x4), then move to the outro.*

Outro:
Play this twice (without optional second guitar).
e|---------5h7p5-------------7h9p7-------------2h4p2-------------2-0~----|
B|-3/5---5-------5---5/7---7-------7---1/2---2-------2---2/3---3------3~-|
G|-4/6-6-----------6-6/7-7-----------7-1/2-2-----------2-2/4-4-----------|
D|-----------------------------------------------------------------------|
A|-----------------------------------------------------------------------|
E|-----------------------------------------------------------------------|

Play this four times.
e|---------5h7p5-------------7h9p7-------------2h4p2-------------2-0~----|
B|---5---5-------5-----7---7-------7-----2---2-------2-----3---3------3~-|
G|-6---6-----------6-7---7-----------7-2---2-----------2-4---4-----------|
D|-----------------------------------------------------------------------|
A|-----------------------------------------------------------------------|
E|-----------------------------------------------------------------------|

Optional: A second guitar plays throughout the entire song, except for the first part of 
outro.
e|-----------------------------------------------------------------------|
B|---5---5---5---5-----7---7---7---7-----2---2---2---2-----3---3---3---3-|
G|-6---6---6---6---6/7---7---7---7---7\2---2---2---2---2/4---4---4---4---|
D|-----------------------------------------------------------------------|
A|-----------------------------------------------------------------------|
E|-----------------------------------------------------------------------|

If it seems confusing just listen to the song, it's really not! :D

- Cheers, Frazer.

| /  slide up
| \  slide down
| h  hammer-on
| p  pull-off
| ~  vibrato
| +  harmonic
| x  Mute note
===============================================================================
            
Submit corrections

comments powered by Disqus
↑ Back to top | Daniel Wesley Tabs for Driftin'. Lyrics for acoustic guitar and electric guitar. Tablatures and chords are parodies/interpretations of the original songs. You may use it for private study, scholarship, research or language learning purposes only