>
 >
Crawl

Crawl Bass Tabs

Damageplan - Crawl chords, tabs, tablatures, lyrics

Guitar lessons | Add/correct | Request | Top 50 tabs Artists:  A B C D E F G H I J K L M N O P Q R S T U V W X Y Z 0-9

Crawl Bass Tabs – Damageplan

CD, Sheet music, Poster

Do you like Crawl? Share with your friends now
Bass TabsTabs

Bass: Drop B





(oo:oo sec)  
             Bass Intro            X4
|1:--------------------------------|
|2:--------------------------------|
|3:--------------------------------|
|4:1-0-1-0--0-1-0--0-1-0--0-2-0-2-3|

(00:20 sec) 
            riff1 X3
|1:---------------|
|2:---------------|
|3:-----------(3)-|
|4:0--------------|

(oo:34 sec)  X1
|1:----------|
|2:----------|
|3:----------|
|4:0---------|

(00:39 sec)      
                 Riff2             X4
|1:--------------------------------|
|2:--------------------------------|
|3:--------------------------------|
|4:1-0-1-0--0-1-0--0-1-0--0-2-0-2-3|

(00:58 sec)
       Riff3 X1
|1:----------|
|2:----------|
|3:----------|
|4:0---------|

(1:02 sec)        
                  Riff4           X8
|1:-------------------------------|
|2:-------------------------------|
|3:-------------------------------|
|4:3-3-3-4-4-4-5-5-7-7-7-8-8-8-9-9|

(1:21 sec)
       Riff5 X4
|1:----------|
|2:----------|
|3:----------|
|4:0---------|

(1:30 sec)
        Riff6 X1
|1:-----------|
|2:-----------|
|3:-----------|
|4:6-5-4-3-2-1|

(1:32 sec) Riff2 X4
       
(1:51 sec) Riff3 X1

(1:55 sec) Riff4 X8

(2:13 sec) Riff5 X4

(2:22 sec) Riff6 X1

(2:25 sec) Riff2 X4

(2:43 sec) Riff6 X1

(2:55 sec)   X1
|1:----------|  
|2:----------|    
|3:----------|   
|4:0---------|  

(3:04 sec)Riff7 X4
|1:----------|  The bass follow the bassdrum
|2:----------|    
|3:----------|   
|4:0---------|  

(3:12 sec)Riff8     X1
|1:-----------------|  I'm not sur if its the bass who do this sound,
|2:-----------------|  but its and very weak sound
|3:-----------------|
|4:(5)-(3)-(5\)-(5\)|

(3:15 sec) Riff7 X4

(3:21 sec) Riff8 X1

(3:24 sec) Riff7 X4

(3:30 sec) Riff8 X1

(3:35 sec) Riff7 X4

(3:51 sec) Riff9          X16
|1:-----------------------|   
|2:-----------------------|
|3:3h5-3h5----------------|
|4:-------3h5-3h5--2h3-1p0|

(4:26 sec) Riff2 X4

(4:45 sec) Riff6 X1

(4:48 sec) Riff2 X8





Comments


Popular Damageplan tabs & chords
Breathing New Life Bass Tabs
Pride Bass Tabs
Save Me Bass Tabs
Breathing New Life 2 Tabs
Explode Tabs
Fuck You Tabs
Moment Of Truth Tabs
New Found Power Tabs
Pride 1 Tabs
Soul Bleed Tabs


Song lyrics



↑ Back to top | Tablatures and chords are parodies/interpretations of the original songs. You may use it for private study, scholarship, research or language learning purposes only
© 2014 AZChords.com Contact us | Privacy policy | DMCA | Add/correct tabs | Request tabs | Top 50 tabs