» » »

D.A.D, Zcmi Tabs (ver.1)

Artists:  A B C D E F G H I J K L M N O P Q R S T U V W X Y Z # 

Zcmi Tabs (ver.1)

D.A.D Tabs
Rating:
0/5 (0 votes)
Zcmi lessons Tabs too difficult? Try these video lessons and learn fast
                D.A.D - ZCMI

Intro/Chorus

                                       ...ends like this:
e|----------------------------------||-------------------|
b|----------------------------------||-------------------|
g|----------------------------------||-------------------|
d|-2-2-2-2-2-2-2-2-2----------------||---5-8-5--4-4-4-4--|
a|-0-3-0-0-0-0-3-0-0-...------------||---5-8-5--4-4-4-4--|
e|----------------------------------||---3-6-3--2-2-2-2--|


Verse:
when jesper sings i play some slides at G and B strings.


Bridge:
(when jesper sings:"see i'm comin' higher, even higher over chimney pot'n 
spire")

e|-----------------------------------------|
b|-----------------------------------------|
g|-----------------------------------------|
d|-7-7--7--5-5--5--4-4--4--3-3-------------|
a|-7-7--7--5-5--5--4-4--4--3-3-------------|
e|-5-5--5--3-3--3--2-2--2--1-1-------------|

Solo:
(rythm guitar)           ...ends:
e|--------------------||---------------------|
b|--------------------||---------------------|
g|--------------------||---------------------|
d|-7--7-6-5-7---------||-3-4-5-6-7-8-9-10----|
a|-7--7-6-5-7---------||-3-4-5-6-7-8-9-10----|
e|-5--5-4-5-7---------||-1-2-3-4-5-6-7--8----|

Play some slides and bends at G and B strings so that it sounds good!


Enjoy!
            

comments powered by Disqus
↑ Back to top | D.A.D Tabs for Zcmi. Lyrics for acoustic guitar and electric guitar. Tablatures and chords are parodies/interpretations of the original songs. You may use it for private study, scholarship, research or language learning purposes only