» » »

Naked (But Still Stripping) Tabs (ver.1)

Artists:  A B C D E F G H I J K L M N O P Q R S T U V W X Y Z # 

Naked (But Still Stripping) Tabs (ver.1)

D.A.D
Rating:
0/5 (0 votes)

Hard to play? Try these video lessons and learn fast.
                D.A.D - Naked (But Still Stripping)

(b)=bend

(p.m.)=palm mute 

fig.1

-------------------------------------------------
-------------------------------------------------
---------------------7-7-----------------------
---6-6---4\6/4---7-7---4\6/4---6-6------
---4-4---2\4/2---5-5---2\4/2---4-4------
-------------------------------------------------


fig.2

---------------------------------------------
---------------------------------------------
-------------------------------------7--7--
---6-6---4-------------------------7--7--
---4-4---2-------------------------5--5--
---------------4--3--2(b)----0-----------

                             (p.m.)
 

fig. 3 (verse)

-------------------------------------------------
-------------------------------------------------
-----------------------------7------------------
---4-4---2--------------5-5------------------
-------------4-3-2--0-------------------------

My tongue's tied and.........

 
fig. 2

My throw decides my aim...


fig. 1 (chorus)

Here's my heart; my hope is drowning...


fig.4

---6--6--6--6------------------------7--7--7--7--7--7--7--7--
---4--4--4--4------2--2--2--2-----5--5--5--5--5--5--5--5--
----------------------0--0--0--0-----------------------------------

...Yeah, I'm naked, but still stripping


fig. 3

Luxury tends to be the same every day...


fig. 2

My throw decides my aim...



fig. 1 (chorus)

Here's my heart; my hope is drowning...

 

fig. 4

...Yeah, I'm naked, but still stripping

 

fig. 2

Some people live so close...

 

fig. 5

--------------------------------------
--------------------------------------
--------------------------------------
--------7--------7/6-----6---------
---7\9-----7\9--------7---------9-
-------------------------------6-7---

                                        I take off my skin.......

 

fig. 6 (from the quite fig. 5 into fig. 6)

--------------------------------------------
--------------------------------------------
--------------------------------------------
---6---6---6---6---6---6----7-7-7-7---------
---4---4---4---4---4---4----5-5-5-5---------
--------------------------------------------

 

fig.7 (before solo)

----------------------------------
----------------------------------
---------------------------------
---6-6---4----------------------
---4-4---2----------2(b)-------
----------------4-3--2(b)--------


Enjoy!
            
Hard to play? Try these video lessons and learn fast. | Correct




comments powered by Disqus
↑ Back to top | Tablatures and chords are parodies/interpretations of the original songs. You may use it for private study, scholarship, research or language learning purposes only