» » »

D.A.D, Last Mango In Paris Tabs (ver.1)

Artists:  A B C D E F G H I J K L M N O P Q R S T U V W X Y Z # 

Last Mango In Paris Tabs (ver.1)

D.A.D Tabs
 Rating:
4/5 (4 votes)
Last Mango In Paris lessons Tabs too difficult? Try these video lessons and learn fast
                D.A.D - Last Mango In Paris


Intro, gtr 1:

e:-------------------
b:-------------------
g:--6---6---6---6----
d:----4---4---4---4--
a:-------------------
e:-------------------


gtr 2:


see chorus


Verse:


e:--------------------------
b:--------------------------
g:-6--6-5-4-x-4-5-6-x-6-5-4-
d:-6--6-5-4-x-4-5-6-x-6-5-4-
a:-4--4-3-2-x-2-3-4-x-4-3-2-
e:--------------------------


End verse on F#5..


CHORUS:
F#5      C#5
What a show 
    A5                      D5                                        
I won't bossanova my way outa this 

No no no 
F#5     C#5
What a blow 
    A5                      E5                                        
I won't bossanova my way outa this 

Hey-he-yh-ey 
F#5      C#5     A5                     D5
This, I know: I won't bossanova my way outa this 
C#5                  D5
It feels good to be careless 
C#5             D5
Last mango in Paris 


Bridge:


e:--------------------------
b:--------------------------
g:--------------------------
d:--------------------------
a:------4---4-----4---4-----
e:--0-2---2---2-2---2---0-2-


Fill in, efter bridge:


e:------------
b:------------
g:---4-6-5-4--
d:-4----------
a:------------
e:------------


Enjoy!
            
Submit corrections

comments powered by Disqus
↑ Back to top | D.A.D Tabs for Last Mango In Paris. Lyrics for acoustic guitar and electric guitar. Tablatures and chords are parodies/interpretations of the original songs. You may use it for private study, scholarship, research or language learning purposes only