» » »

It Changes Everything Tabs (ver.1)

Artists:  A B C D E F G H I J K L M N O P Q R S T U V W X Y Z # 

It Changes Everything Tabs (ver.1)

D.A.D
Rating:
0/5 (0 votes)

Hard to play? Try these video lessons and learn fast.
                D.A.D - It Changes Everything

Intro:


e:---------------------------------------
b:--------------------------------10-10--
g:-7h9--9-7------7h9--9-7---------11-----
d:-0---------11--0---------11-11--11-----
a:------------0-------------9--9---9-----
e:---------------------------------------


e:-----------------------------
b:-------------------------10--
g:-7h9--9-7------7h9--9-7--11--
d:-0---------11--0---------11--
a:------------0-------------9--
e:-----------------------------


Verse:


I'm not sure it's 100 % correct, but it's close:


D-A-D-F#m-D-A-Bm-C#m-D-A-D-F#m-D-C#m-D-F#m


Chorus:


C#m-B-A-E-C#m-B-A-E-C#m-A-F#m-A-C#m-B-A-E-


play the C#m like this (only in chorus):


e:-4---
b:-4h5-
g:-6---
d:-6---
a:-4---
e:-----


C#m        B               A              E
It changes everything, but in the wrong direction
C#m        B               A              E
It changes everything, and what we turn into
                    C#m    A
Yeah, love conquers all, 
     F#m        A
but evil won today
C#m        B          A             E
It changes everything, It changes everything


Bridge:


Hm               F#m
Like birds that aren't in cages 
Hm        F#m
They fly about on wings
Hm        C#m 
Keep you awake forever
   D                           F#m 
A dream that's constantly steady 


Enjoy!
            
Hard to play? Try these video lessons and learn fast. | Correct




comments powered by Disqus
↑ Back to top | Tablatures and chords are parodies/interpretations of the original songs. You may use it for private study, scholarship, research or language learning purposes only