» » »

Indian Love Tabs (ver.1)

Artists:  A B C D E F G H I J K L M N O P Q R S T U V W X Y Z # 

Indian Love Tabs (ver.1)

D.A.D
Rating:
0/5 (0 votes)

Hard to play? Try these video lessons and learn fast.
                D.A.D - Indian Love

e:------------------------------
h:------------------------------
G:-------------2--4--2--0----------------
D:---2--4--5---------------4--2--0--2---------
A:-2-----------------------------
E:------------------------------

                                    
e:------------------------------------------------------------------
h:----------3--3--0------------------------5--3--0----1--3--1--0----
G:--2--4--2--------------------------------------------------------------2-4---
D:----2--4--5------------------------------------
A:-2------------------------------------------
E:-------------------------------------------

                       
e:------------------------------
h:------------------------------
G:---------------2--4--2--0----------------
D:----2--4--5-----------------4--2--0--2---------
A:-2----------------------------
E:------------------------------
 



VERS


G                                   E
The sun went up, red and blooming
               G                                                 E
Spreading heat, and light, and dust, all over wyoming
G                                          E
betsy went away, forever and ever
              G                               E
while I'm standin' here on never never


 



Chorus
      D                                G           E
oh, indian girl, where've you been so long ?
      G                                             E
I'm standing here, can't you hear my song?
      D                                G          E
oh, indian girl, where've you been so long ?
      G                                            E
I'm standing here, can't you hear my song?



Vers 2
I was standing above and my tears were falling
Looking down on my love while the tribe was calling
Betsy went forever and ever 
while I'm standin here on never never


Chorus
 

Mellemspil(som intro)


Vers 3 (kun e akkorder)


When that sun went up, red and blooming
I lost my heart, my light my love way out in wyoming
Betsy went away forever and ever
While i'm standing here on never never


Chorus


outro

e:---------------------------------------
h:---------------------------------------
G:-------------2--4--2--0------------------------
D:---2--4--5----------------4--2--0--2----------------
A:-2-------------------------------------
E:---------------------------------------


e:---------------------------------------
h:--3--3-----------------------------------
G:---------2--2--2--4--5--4--2--4------------------
D:-------------------------------------2--2--------------
A:---------------------------------------
E:---------------------------------------


FADE OUT.

Enjoy!
            
Hard to play? Try these video lessons and learn fast. | Correct




comments powered by Disqus
↑ Back to top | Tablatures and chords are parodies/interpretations of the original songs. You may use it for private study, scholarship, research or language learning purposes only