» » »

Human Kind Tabs (ver.1)

Artists:  A B C D E F G H I J K L M N O P Q R S T U V W X Y Z # 

Human Kind Tabs (ver.1)

D.A.D
Rating:
0/5 (0 votes)

Hard to play? Try these video lessons and learn fast.
                D.A.D - Human Kind

Intro:


       D
e:----------------0h2----------------------------------
b:-----------3----------3----------------3---------3--
g:-------2-------------------2-------2------0h2------
d:---0---------------------------0----------------------
a:-------------------------------------------------------
e:-------------------------------------------------------


repeat once


Verse:


| D | Am - C | F - Em | A |


Pre-chorus:
Dm       F
I
           C
I see familiar clouds go by
Gm
I 
               Dm
I'm underneath a ceiling sky



Chorus:

| F - C|  Gm | Gm |


Guitar 2 on chorus:


e:---6---6--5---5----------------
b:-------------------8--8--6--6--
g:---------------------------------
d:---------------------------------
a:---------------------------------
e:---------------------------------


End on Dm

Enjoy!
            
Hard to play? Try these video lessons and learn fast. | Correct




comments powered by Disqus
↑ Back to top | Tablatures and chords are parodies/interpretations of the original songs. You may use it for private study, scholarship, research or language learning purposes only