» » »

D.A.D, Hate To Say I Told You So Tabs (ver.1)

Artists:  A B C D E F G H I J K L M N O P Q R S T U V W X Y Z # 

Hate To Say I Told You So Tabs (ver.1)

D.A.D Tabs
Rating:
0/5 (0 votes)
Hate To Say I Told You So lessons Tabs too difficult? Try these video lessons and learn fast
                    _____________________________
   / D-A-D                      /  I would argue that this is the best song,
  / Hate to Say I Told You So  /  they have ever written :) Enjoy!
 / Simpatico                  /
/____________________________/

  1 + 2 + 3 + 4 +     Each bar and beat is displayed like this.
 +=---=---=---=---+   Hence you can read the exact timing of the chords.


  CHORDS:
     C    G    Bb   F    Am   Em   Dm   Ab
 :---0----3----6----1----0----0----1----4----:
 :---1----3----6----1----1----0----3----4----:
 :---0----4----7----2----2----0----2----5----:
 :---2----5----8----3----2----2----0----6----:
 :---3----5----8----3----0----2---------6----:
 :--------3----6----1---------0---------4----:

--------------------------------------------------------------------------------



Intro:
 C       G        Bb               F
+=---=---=---=---+=---=---=---=---+=---=---=---=---+

 lead guitar-part:
  C          G           Bb                      F                       Am
|----------------------|-----------------------|-----------------------|----:
|----------------------|-----------------------|-----------------------|----:
|----------------------|-----------------------|-----------------------|----:
|----------------------|-----------------------|-----------------------|----:
|----5b7r5p3-5--3-5----|----5b7r5p3-5--3----3--|----5b7r5p3-5--3--3-5--|/7--:
|----------------------|------------------5----|-----------------------|----:



Verse:
 Am      C        Em      Bb       Dm      C        G
+=---=---=---=---+=---=---=---=---+=---=---=---=---+=---=---=---=---+

 Am      C        Em      Bb       Dm      C        G
+=---=---=---=---+=---=---=---=---+=---=---=---=---+=---=---=---=---+


Chorus:
 C       Em       Ab      G        C       Em       Ab      G
+=---=---=---=---+=---=---=---=---+=---=---=---=---+=---=---=---=---+

 C       Em       Ab      Bb       C       Em       Ab
+=---=---=---=---+=---=---=---=---+=---=---=---=---+=---=---=---=---+

 Dm
+=---=---=---=---+


Intro
Verse
Chorus


Guitar solo:
 C       G        Bb 
+=---=---=---=---+=---=---=---=---+

 F       Em       Dm               F       Em       Bb
+=---=---=---=---+=---=---=---=---+=---=---=---=---+=---=---=---=---+

 F       Em       G                G
+=---=---=---=---+=---=---=---=---+=---=---=---=---+


 lead guitar parts:
(Notice that the second lead guitar, panned left, joins in after 2 bars.)
  C          G           Bb
|----------------------|------------------------|
|----------------------|------------------------|
|----------------------|------------------------|
|----------------------|------------------------|
|----5b7r5p3-5--3-5----|----5b7r5p3-5--3--3-5-7-|
|----------------------|------------------------|

  F               Em             Dm
|------------------------------|-------------------------------|
|------------------------------|-------------------------------|
|------------------------------|-------------------------------|
|------------------------------|-------------------------------|
|-7b8~------8r7p5-7------7r5p3-|-5---5/7\5p3---------------5-7-|
|------------------------------|-------------5-----------------|
|
|-----/5~-------------3~-------|\1-------------1-1-1h3-1p0-1~~~|
|------------------------------|---------------3-3-3-----------|
|--------5~---------4~---------|\2-----------------------------|
|------------------------------|-------------------------------|
|------------------------------|-------------------------------|
|------------------------------|-------------------------------|

  F               Em             Bb
|------------------------------|--------------------------------|
|------------------------------|--------------------------------|
|------------------------------|--------------------------------|
|------------------------------|--------------------------------|
|-7b8~------8r7p5-7------7r5p3-|-5---5/7-5-7-8--------------5-7-|
|------------------------------|--------------------------------|
|
|~~~----------------/3---------|-------------0-1---1h3p1-1-/5~~~|
|----------------------5~------|-3---------3---3---3------------|
|------------------------------|---------------3---3------------|
|------------------------------|--------------------------------|
|------------------------------|--------------------------------|
|------------------------------|--------------------------------|

  F            Em            G                        G
|--------------------------|------------------------|-7^-------------------|
|--------------------------|-0----------------------|-8^-------------------|
|--------------------------|-0----------------0-7p0-|-7^-------------------|
|--------------5~----5\3p2-|-0----------------------|----------------------|
|-7b8~---8r7p5-------------|-x----------------------|----------------------|
|--------------------------|-3----------------------|----------------------|
|
|~~~---------------3~------|(3)----------3------3-5-|/7~---3/5-0--5b7~~~~~~|
|----------------0~--------|(0)--0h1-0---3----------|-----x----------------|
|--------------0~----------|(0)--0---0---0----------|----x-----------------|
|--------------------------|------------------------|----------------------|
|--------------------------|------------------------|----------------------|
|--------------------------|------------------------|----------------------|



Bridge:
 Em      Bb       Am               Em      Bb       F
+=---=---=---=---+=---=---=---=---+=---=---=---=---+=---=---=---=---+

(The second lead guitar continues.)
  Em     Bb        Am                Em     Bb        F                    C
|~~~~~-----------|-----------------|----------------|-0------------------|-15~-:
|----------------|---1h3/5---------|----------------|-1-/5b6~---12b13~~~~|-----:
|----------------|--x------4b5~~~--|r4~~~-----------|-2------------------|-----:
|----------------|-x---------------|----------------|-3------------------|-----:
|----------------|-----------------|----------------|--------------------|-----:
|----------------|-----------------|----------------|--------------------|-----:



Chorus, end on C



 LYRICS
**********
"I need to be afraid",
said the kind weak man, as he lay cuddled up in his bed
with those whispers around his head.
Yeah, he'd come to nothing in a way.
In a way that left him
with nothing to say but O.K.
Yeah, his eyes only worked one way

[Chorus:]
There's no such thing as paranoia;
It's always twice as bad as you fear.
And the thing that destroys you
is that you had the answers right here.
There's no such thing as paranoia;
it's always twice as bad as you fear. (I told you, I told you.)
I'd hate to say I told you so.
Hate to say I told you so.

"Old scars, but the cuts were new",
said the girl who loved many, but trusted a few; yeah, it's true.
'coz she feared anyone new.
She lend out her feelings of pure affection.
He kept the collection and the missing piece of her heart.
Yeah, her eyes only looked that far.

[Chorus]

There's murder going on inside.
Yeah, 'coz you only see so much through the human eye.

[Chorus]


+--------------------------------------------------------------------------+
Jon Sebastian Frederiksen - 10th /February /12
            

comments powered by Disqus
↑ Back to top | D.A.D Tabs for Hate To Say I Told You So. Lyrics for acoustic guitar and electric guitar. Tablatures and chords are parodies/interpretations of the original songs. You may use it for private study, scholarship, research or language learning purposes only