» » »

D.A.D, Girl Nation Tabs (ver.1)

Artists:  A B C D E F G H I J K L M N O P Q R S T U V W X Y Z # 

Girl Nation Tabs (ver.1)

D.A.D Tabs
Rating:
0/5 (0 votes)
Girl Nation lessons Tabs too difficult? Try these video lessons and learn fast
                D-A-D - Girl Nation

|H|-|A|

H A E H A E

|------------------|-----------------|------------------|----------------|
|------------------|-----------------|------------------|----------------|
|------------------|-----------------|------------------|----------------|
|--4----2---2-4-4--|----0-2----------|--4----2---2-4-4--|----0-2---------|
|-----2---4--------|--4-----4-0-2----|-----2---4--------|--4-----4-0-2---|
|------------------|-----------------|------------------|----------------|


H G D A G A H

E|------------------|------------|---------------|--------------------|
H|------------------|------------|---------------|--------------------|
G|------------------|------------|---------------|--------------------|
D|--4----2---2-4-4--|--5--4---2--|---------------|-----4---2---2-4-4--|
A|-----2---4--------|------------|--5---0-2-4-0--|--2----2---4--------|
E|------------------|------------|---------------|--------------------|

A

E|---------------------------|
H|---------------------------|
G|---------------------------|
D|---------------------------|
A|---------------------------|
E|--5--4-4--5--4--5--4-5--5--|

H
I had a ticket to fly so I boarded a plane
A E
When a combat dressed stewardesse shouted my name
H
I'm wanted alive yeah! I'm in for a trial
A E
It's minimum mercy coz they found my file
H
Hijacked, kidnapped, trailed and trapped
G D A G A
They fly me in I'm gonna pay for all of my sins - now it begins
H
Yeah! I've found place where girls eat men
A E
Now I'm back in girl nation again

H A E
Girl nation - Female civilization
H A E
Girl nation - Female civilization

It's a female tale it's hard to use words
But I'm landed and stranded among oysters & birds
Bad bush & dangerous curves - Bad boys get what they deserves
Wild sisters dancing all night - Round that totem
With a knife to my throat - Round that totem
Yeah! They're chanting the oath
H
Singing 'bout mama all through the night
A
Round that totem of the red light

H A E
Girl nation - Female civilization
H A E
Girl nation - Female civilization
H G D A G
In girl nation by interstellar navigation

A
Sweet female persuasion
H A E
Globetrotting to ladyland - Back where time began

(Solo)

|H-A|-|E|

|H-A|-|E|

|G-A-D|

|G-A|

|H|-|A|

H
One wild second then I was down
A E
One full circle they stood all around
H
Counting my bones waiting to be dead
A E
When a soft loving hand lifted my head
H
Tender lips kissing my chin, whispering:
A
Honey, where have you been?

H
In girl nation - Totem of the red light
A E
Female civilization
H
In girl nation - Totem of the red light
A E
It's a female civilization
H
Girl nation

G D A G A
By interstellar navigation - Sweet female persuasion
H A E
Globetrotting through ladyland - Back where time began

H
In girl nation
            
Submit corrections

comments powered by Disqus
↑ Back to top | D.A.D Tabs for Girl Nation. Lyrics for acoustic guitar and electric guitar. Tablatures and chords are parodies/interpretations of the original songs. You may use it for private study, scholarship, research or language learning purposes only