>
 >
Cloudy Hours

Cloudy Hours Guitar Tabs

D.A.D - Cloudy Hours chords, tabs, tablatures, lyrics

Guitar lessons | Add/correct | Request | Top 50 tabs Artists:  A B C D E F G H I J K L M N O P Q R S T U V W X Y Z 0-9

Cloudy Hours Guitar Tabs – D.A.D

CD, Sheet music, Poster

Do you like Cloudy Hours? Share with your friends now
Tabs
D.A.D - Cloudy Hours

R= Repeat many times

Intro:

Slide up and down frets with slider, and constantly turn up and down the 

master button.


Riff1


------------------------------/
------------------------------/
------------------------------/
-6--------9--------13---------/
-6-(R)----9-(R)----13-(R)-----/
-4--------7--------11---------/
For tomorrows unpaid fears.....



Riff2


--------------------/
--------------------/
--------------------/
-----7-----7-7------/
-----7-----7-7------/
--0--5--0--5-5------/


Riff3


-------------------------------------------------------
-------------------------------------------------------
-------------------------------------------------------
--6---6-6-6--6--6--6----2---2---2-2----9-9-9---9--9--9-
--6---6-6-6--6--6--6----2---2---2-2----9-9-9---9--9--9-
--4---4-4-4--4--4--4----0---0---0-0----7-7-7---7--7--7-

Cause in all those cloudy hours.....


------------------------------------------------
------------------------------------------------
------------------------------------------------
-6---6-6-6--6--6-6---13---13-13-13--13-13-13----
-6---6-6-6--6--6-6---13---13-13-13--13-13-13----
-4---4-4-4--4--4-4---11---11-11-11--11-11-11----


-------------------------------------------/
-------------------------------------------/
-------------------------------------------/
-9---9-9-9--9-9-9-----2-----2--------------/
-9---9-9-9--9-9-9-----2-----2--------------/
-7---7-7-7--7-7-7-----0-----0--------------/


Riff4

--------------/
--------------/
--------------/
--7-7-7-7-7b--/(Play 4 times)
--7-7-7-7-7b--/ 
--5-5-5-5-5b--/

Background before the solo


Riff5

-------------------------------------------/
-------------------------------------------/
-------------------------------------------/
--6-----2-----9-----6-----13-----9------2--/
--6-(R)-2-(R)-9-(R)-6-(R)-13-(R)-9-(R)--2--/
--4-----0-----7-----4-----11-----7------0--/

Rhythm during solo


Riff6 (outro)

-------/
-------/
-------/
--6----/
--6----/
--4----/

Play it like this:

Intro
Riff1 x 2 times
Riff2 x 1 time
Riff3 x 1 time 
Riff1 x 2 times
Riff2 x 1 time
Riff3 x 2 times 
Play the intro part again (slightly different)
Riff4 x 1 time
Riff5 x 2 times (solo)
Riff3 x 1 time
Riff6 x 1 time


Enjoy!





Comments


Popular D.A.D tabs & chords
Sleeping My Day Away Bass Tabs
Between You And Me Chords
Camping In Scandinavia Chords
Laugh And A Half 2 Chords
Little Adict Chords
Evil Twin Intro Tabs
Hate To Say Told You So Tabs
Scare Yourself Tabs
Hate To Say I Told You So Ukulele
Little Adict Ukulele


Song lyrics



↑ Back to top | Tablatures and chords are parodies/interpretations of the original songs. You may use it for private study, scholarship, research or language learning purposes only
© 2014 AZChords.com Contact us | Privacy policy | DMCA | Add/correct tabs | Request tabs | Top 50 tabs