» » »

Allright Tabs (ver.1)

Artists:  A B C D E F G H I J K L M N O P Q R S T U V W X Y Z # 

Allright Tabs (ver.1)

D.A.D
Rating:
0/5 (0 votes)

Hard to play? Try these video lessons and learn fast.
                Dad - Allright 

**MADE BY Mika Becher**

G = 3 5 5 X X X
A#= 6 8 8 X X X
D#= X 6 8 8 X X
C = X 3 5 5 X X 
F = 1 3 3 X X X
D = X 5 7 7 X X


Intro:
   G   A#  D#     D
e|-------------------------------|x2
B|-------------------------------|x2
G|-------------------------------|x2
D|-5---8-------------------------|x2
A|-5---8---6-8-10-12-13p12-------|x2
E|-3-3-6-------------------15-14-|x2

e|-------------------------------|
B|-------------------------------|
G|-------------------------------|
D|-5-5-8-------------------------|
A|-5-5-8---6-8-10-12-13----------|
E|-3-3-6-------------------------|

VERSE:
   G        D#               F        C        F        C        D#
e|------------------------------------------------------------------------|x2
B|------------------------------------------------------------------------|x2
G|----------8888888888888888----------55555555----------55555555-88888888-|x2
D|-55555555-8888888888888888-33333333-55555555-33333333-55555555-88888888-|x2
A|-55555555-6666666666666666-33333333-33333333-33333333-33333333-66666666-|x2
E|-33333333------------------11111111----------11111111-------------------|x2

VERSE 1:

Sometimes when I'm dreaming
Heading to God knows where
That's when it hits me 
It seems I'm already there
But there's no forgiving
In the silence of my mind
Nothing is living
Nothing there to go round

CHORUS:
   G        A#       D#       D
e|-------------------------------------|x4
B|-------------------------------------|x4
G|-------------------88888888-77777777-|x4
D|-55555555-88888888-88888888-77777777-|x4
A|-55555555-88888888-66666666-55555555-|x4
E|-33333333-66666666-------------------|x4

CHORUS:

If this is what it looks like
When the world's gonna end
Then it's allright (allright)
If this is what it feels like
Then I'll do it again
Cause it's allright
Yeah I know that I'm glad it's over
But what comes next may be worse
If this is what it looks like
When the world's gonna end
Then I'm allright
Yeah I'm allright
Yeah I'm allright

VERSE:
   G        D#               F        C        F        C        D#
e|------------------------------------------------------------------------|x2
B|------------------------------------------------------------------------|x2
G|----------8888888888888888----------55555555----------55555555-88888888-|x2
D|-55555555-8888888888888888-33333333-55555555-33333333-55555555-88888888-|x2
A|-55555555-6666666666666666-33333333-33333333-33333333-33333333-66666666-|x2
E|-33333333------------------11111111----------11111111-------------------|x2

VERSE 2:

I've tried to be humble
I've tried to be proud
My world is cracked open
And I'm slowly leaking out
I call on an angel
Who often saved my life
And Nobody sees us
When we're swimming through the crowd

BRIDGE:
   G   A#  D#     D
e|-------------------------------|x3
B|-------------------------------|x3
G|-------------------------------|x3
D|-5---8-------------------------|x3
A|-5---8---6-8-10-12-13p12-------|x3
E|-3-3-6-------------------15-14-|x3

BRIDGE:

There ways there means
To shatter your dreams
I lost the attention
If you know what I mean
I just letting go
Melting away
I finally see
I'm on the last day
But I'm allright

   G        F        A#       D#
e|---------------------------------------------|
B|---------------------------------------------|
G|----------------------------8888888888888888-|
D|-55555555-33333333-88888888-8888888888888888-|
A|-55555555-33333333-88888888-6666666666666666-|
E|-33333333-11111111-66666666------------------|

CHORUS:

   G        A#       D#       D
e|-------------------------------------|x4
B|-------------------------------------|x4
G|-------------------88888888-77777777-|x4
D|-55555555-88888888-88888888-77777777-|x4
A|-55555555-88888888-66666666-55555555-|x4
E|-33333333-66666666-------------------|x4

CHORUS:

If this is what it looks like
When the world's gonna end
Then it's allright (allright)
If this is what it feels like
Then I'll do it again
Cause it's allright
Yeah I know that I'm glad it's over
But what comes next may be worse
If this is what it looks like
When the world's gonna end
Then I'm allright
Yeah I'm allright
Yeah I'm allright

SOLO CHORDS:
G | A# | D# | D
G | F | D# | D
G | A# | D# | D
G | F | D# | D
G | A# | D# | D
G 

SOLO:

e|-------------------------------------------------------------------------|
B|-------------------------------------------------------------------------|
G|-12h14h15-12h14h15-12h14h15-12h14h15-12h14h15-12h14h15-12h14h15-12h14h15-|
D|-------------------------------------------------------------------------|
A|-------------------------------------------------------------------------|
E|-------------------------------------------------------------------------|

e|----------------------------------------------------------------------------------------|
B|----------------------------------------------------------------------------------------|
G|-12h14h15-12h14h15-12h14h15-12h14h15-12h14h15-12-17-17-12-17-17-12-17-12h14h15-12h14h15-|
D|----------------------------------------------------------------------------------------|
A|----------------------------------------------------------------------------------------|
E|----------------------------------------------------------------------------------------|

e|--------------------------------------------------------------------------------|
B|--------------------------------------------------------------------------------|
G|-12-14~----17-19----15-17----14-15----15-17----17-19----15-17----14-15-12-15-14-|
D|--------17-------17-------17-------17-------17-------17-------17----------------|
A|--------------------------------------------------------------------------------|
E|--------------------------------------------------------------------------------|

e|-----------------------------------------------------------------------|
B|-------------------------------------------------------------------20~-|
G|----17-19----17-19----17-19----20-19----17-19----20-19----17-20-20-----|
D|-17-------17-------17-------17-------17-------17-------17--------------|
A|-----------------------------------------------------------------------|
E|-----------------------------------------------------------------------|

e|--------------------------------------------------------------|
B|-------------15h16-15----15~----------------------------------|
G|-17-19-15-17----------17----17-19-15-17-14-15-12-15-15-14-12~-|
D|--------------------------------------------------------------|
A|--------------------------------------------------------------|
E|--------------------------------------------------------------|
            
Hard to play? Try these video lessons and learn fast. | Correct




comments powered by Disqus
↑ Back to top | Tablatures and chords are parodies/interpretations of the original songs. You may use it for private study, scholarship, research or language learning purposes only