>
 >
It Doesn't Matter

It Doesn't Matter Guitar Tabs

Crush 40 - It Doesn't Matter chords, tabs, tablatures, lyrics

Guitar lessons | Add/correct | Request | Top 50 tabs Artists:  A B C D E F G H I J K L M N O P Q R S T U V W X Y Z 0-9

It Doesn't Matter Guitar Tabs – Crush 40

CD, Sheet music, Poster

Do you like It Doesn't Matter? Share with your friends now
Tabs
Gtr I (E A D G B E) - 'Jun Senoue(lead)'
Gtr II (E A D G B E) - 'Jun Senoue(backup/harmony)'
Gtr III (E A D G B E) - 'Backup'


 Intro
  Q=123
 4/4
  Gtr I
                                                         ~~~~~~
  E +S  E   +S  E E +S  E   +S  E   E +S  E   +S   E +E  E +E
|---------------------------------|------------------------------|
|---------------------------------|------------------------------|
|-6-(6)-7---(7)-9-7-(7)-6---(6)---|---------------/9-(9)-7-(7)---|
|-------------------------------7-|-------7---(7)----------------|
|---------------------------------|-9-(9)------------------------|
|---------------------------------|------------------------------|
|
| Gtr II
| E  E    E     E E  E    E     E   E  E    E      E  E  E  E  E
|---------------------------------|------------------------------|
|---------------------------------|------------------------------|
|---------------------------------|-7--7----7------7--7--7--7--7-|
|-7--7----7-----7-4--4----4-----4-|-7--7----7------7--7--7--7--7-|
|-7--7----7-----7-4--4----4-----4-|-5--5----5------5--5--5--5--5-|
|-5--5----5-----5-2--2----2-----2-|------------------------------|


                                                     ~~~~~~~~~~~~~~~~~~~~~
  E +S  E   +S  E E +S  E   +S  E   E +S  E   +S  E +E  +S  +E    +S  +E
|---------------------------------|---------------------------------------|
|---------------------------------|---------------------------------------|
|-6-(6)-7---(7)-9-7-(7)-6---(6)---|---------------------------------------|
|-------------------------------7-|-9-(9)-7---(7)-7-(7)-(7)-(7)---(7)-(7)-|
|---------------------------------|---------------------------------------|
|---------------------------------|---------------------------------------|
|
| E  E    E     E E  E    E     E   E  E    E     E  E   E      E      E
|---------------------------------|---------------------------------------|
|---------------------------------|---------------------------------------|
|---------------------------------|---------------------------------------|
|-7--7----7-----7-4--4----4-----4-|-5--5----5-----5--5---5------5------5--|
|-7--7----7-----7-4--4----4-----4-|-5--5----5-----5--5---5------5------5--|
|-5--5----5-----5-2--2----2-----2-|-3--3----3-----3--3---3------3------3--|


                                                         ~~~~~~
  E +S  E   +S  E E +S  E   +S  E   E +S  E   +S   E +E  E +E
|---------------------------------|------------------------------|
|---------------------------------|------------------------------|
|-6-(6)-7---(7)-9-7-(7)-6---(6)---|---------------/9-(9)-7-(7)---|
|-------------------------------7-|-------7---(7)----------------|
|---------------------------------|-9-(9)------------------------|
|---------------------------------|------------------------------|
|
| E  E    E     E E  E    E     E   E  E    E      E  E  E  E  E
|---------------------------------|------------------------------|
|---------------------------------|------------------------------|
|---------------------------------|-7--7----7------7--7--7--7--7-|
|-7--7----7-----7-4--4----4-----4-|-7--7----7------7--7--7--7--7-|
|-7--7----7-----7-4--4----4-----4-|-5--5----5------5--5--5--5--5-|
|-5--5----5-----5-2--2----2-----2-|------------------------------|


  E +S  E   +S  E E +S  E   +S  E   E +S  E   +S  E  E  +E   +E   +E
|---------------------------------|-----------------------------------|
|---------------------------------|-----------------------------------|
|-6-(6)-7---(7)-9-7-(7)-6---(6)---|-----------------------------------|
|-------------------------------7-|-9-(9)-7---(7)-9-------------------|
|---------------------------------|-----------------10-(10)-(10)-(10)-|
|---------------------------------|-----------------------------------|
|
| E  E    E     E E  E    E     E   E  E    E     E  E   E    E    E
|---------------------------------|-----------------------------------|
|---------------------------------|-----------------------------------|
|---------------------------------|-----------------------------------|
|-7--7----7-----7-4--4----4-----4-|-5--5----5-----5--5---5----5----5--|
|-7--7----7-----7-4--4----4-----4-|-5--5----5-----5--5---5----5----5--|
|-5--5----5-----5-2--2----2-----2-|-3--3----3-----3--3---3----3----3--|


 Pre-Verse 1
    ~~~~~~~~~
  a H    +H       S E S E S E S E E +E
|---------------|-------------------------|
|---------------|-------------------------|
|-6s7----(7)----|-9-9-7-7-6-6-7-7-9-(9)\--|
|---------------|-9-9-7-7-6-6-7-7-9-(9)\--|
|---------------|-7-7-5-5-4-4-5-5-7-(7)\--|
|---------------|-------------------------|
|
|   H    +H       S E S E S E S E E +E
|---------------|-------------------------|
|---------------|-------------------------|
|---7----(7)----|-----------------9-(9)\--|
|---7----(7)----|-9-9-7-7-6-6-7-7-9-(9)\--|
|---5----(5)----|-7-7-5-5-4-4-5-5-7-(7)\--|
|---------------|-------------------------|


   Verse 1
    PM--------------------------------------------------------------|
    S S S S S S S S S S S S S S S S   S S S S S S S S S S S S S S S S
||----------------------------------|-----------------------------------|
||o---------------------------------|-----------------------------------|
||----------------------------------|-----------------------------------|
||----------------------------------|-----------------------------------|
||o-0-0-0-0-0-0-0-0-0-0-0-0-0-0-0-0-|-----------------------------------|
||----------------------------------|-0-0-0-0-0-0-0-0-0-0-0-0-0-0-0-0---|
|
|   E   E                             E   E
||----------------------------------|-----------------------------------|
||o---------------------------------|-----------------------------------|
||--2---2---------------------------|-----------------------------------|
||--2---2---------------------------|-2---2-----------------------------|
||o-0---0---------------------------|-2---2-----------------------------|
||----------------------------------|-0---0-----------------------------|


                                   1.
  PM----------------------------|
  S S S S S S S S S S S S S S S S   H    E +S  E +S  E
|---------------------------------|----------------------||
|---------------------------------|---------------------o||
|---------------------------------|-6----7-(7)-7-(7)-9---||
|---------------------------------|-6----7-(7)-7-(7)-9---||
|---------------------------------|-4----5-(5)-5-(5)-7--o||
|-3-3-3-3-3-3-3-3-3-3-3-3-3-3-3-3-|----------------------||
|
| E   E                             H    E +S  E +S  E
|---------------------------------|----------------------||
|---------------------------------|---------------------o||
|---------------------------------|-6----7-(7)-7-(7)-9---||
|-5---5---------------------------|-6----7-(7)-7-(7)-9---||
|-5---5---------------------------|-4----5-(5)-5-(5)-7--o||
|-3---3---------------------------|----------------------||


  2.
  E +E  E +E  Q  Q
|---------------------|
|---------------------|
|-6-(6)-7-(7)-9--9----|
|-6-(6)-7-(7)-9--9----|
|-4-(4)-5-(5)-7--7----|
|---------------------|


   Pre-Chorus 1
    E  E    E   E   E     E   E   E   E  E    E   E     E  E     E   E    3x
||----------------------------------|-------------------------------------||
||o---------------------------------|------------------------------------o||
||--7--7----7---7---7-----7---7---7-|-------------------9--9-----9---9----||
||--7--7----7---7---7-----7---7---7-|-7--7----7---7-----9--9-----9---9----||
||o-5--5----5---5---5-----5---5---5-|-7--7----7---7-----7--7-----7---7---o||
||----------------------------------|-5--5----5---5-----------------------||
|
|   E +S  E   E   E   +E    E   E     E +S  E   E   +S  E +S   E   E      3x
||----------------------------------|-------------------------------------||
||o---------------------------------|------------------------------------o||
||--7-(7)-9---7---7---(7)---9---7---|-6-(6)-7---6---(6)-9-(9)-11---9------||
||----------------------------------|-------------------------------------||
||o-5-(5)-7---5---5---(5)---7---5---|-4-(4)-5---4---(4)-7-(7)--9---7-----o||
||----------------------------------|-------------------------------------||


   H         +Q    +Q      E +E  E +E  E +S  E +S  E E +E  +E  +E
|------------------------|------------------------------------------|
|------------------------|------------------------------------------|
|------------------------|-6-(6)-7-(7)-9-(9)-7-(7)-8-9-(9)-(9)-(9)--|
|--5---------(5)---(5)---|------------------------------------------|
|--5---------(5)---(5)---|-4-(4)-5-(5)-7-(7)-5-(5)-6-7-(7)-(7)-(7)--|
|--3---------(3)---(3)---|------------------------------------------|
|
|  Q   +Q     Q    +Q      E +E  E +E  E +S  E +S  E E +E  +E  +E
|------------------------|------------------------------------------|
|------------------------|------------------------------------------|
|-12--(12)--/16---(16)\--|-6-(6)-7-(7)-9-(9)-7-(7)-8-9-(9)-(9)-(9)--|
|------------------------|------------------------------------------|
|-10--(10)--/14---(14)\--|-4-(4)-5-(5)-7-(7)-5-(5)-6-7-(7)-(7)-(7)--|
|------------------------|------------------------------------------|


 Chorus 1
  E   E   E   E   E    E    E     E     E   E   E   E   E    E    E     E
|-------------------------------------|-------------------------------------|
|-------------------------------------|-------------------------------------|
|-------------------------------------|-------------------------------------|
|-7---7---7---7---7----7----7-----7---|-4---4---4---4---4----4----4-----4---|
|-7---7---7---7---7----7----7-----7---|-4---4---4---4---4----4----4-----4---|
|-5---5---5---5---5----5----5-----5---|-2---2---2---2---2----2----2-----2---|
|
| E   E   E   E   E   +S  E   +S        E   E   E   E   E   +S  E   +S
|-------------------------------------|-------------------------------------|
|-------------------------------------|-------------------------------------|
|-----------------6---(6)-7---(7)-----|-----------------6---(6)-7---(7)-----|
|-7---7---7---7-----------------------|-4---4---4---4-----------------------|
|-7---7---7---7---4---(4)-5---(5)-----|-4---4---4---4---4---(4)-5---(5)-----|
|-5---5---5---5-----------------------|-2---2---2---2-----------------------|
|
| Gtr III
| PM-------------------------------------------------------------------------
| S S S S S S S S S S  S  S S  S  S S   S S S S S S S S S S  S  S S  S  S S
|-------------------------------------|-------------------------------------|
|-------------------------------------|-------------------------------------|
|-------------------------------------|-------------------------------------|
|-------------------------------------|-------------------------------------|
|-------------------------------------|-------------------------------------|
|-5-5-5-5-5-5-5-5-5-5--5--5-5--5--5-5-|-2-2-2-2-2-2-2-2-2-2--2--2-2--2--2-2-|


  E   E   E   E   E    E    E     E     E   E   E   E   E   E   E   E
|-------------------------------------|-----------------------------------|
|-------------------------------------|-----------------------------------|
|-------------------------------------|-9---9---9---9---9---9---9---9-----|
|-7---7---7---7---7----7----7-----7---|-9---9---9---9---9---9---9---9-----|
|-7---7---7---7---7----7----7-----7---|-7---7---7---7---7---7---7---7-----|
|-5---5---5---5---5----5----5-----5---|-----------------------------------|
|
| E   E   E   E   E   +S  E   +S        E   E   E   E   E   E   E   E
|-------------------------------------|-----------------------------------|
|-------------------------------------|-----------------------------------|
|-----------------6---(6)-7---(7)-----|-9---9---9---9---9---9---9---9-----|
|-7---7---7---7-----------------------|-9---9---9---9---9---9---9---9-----|
|-7---7---7---7---4---(4)-5---(5)-----|-7---7---7---7---7---7---7---7-----|
|-5---5---5---5-----------------------|-----------------------------------|
|
|---------------------------------------------------------------------|
| S S S S S S S S S S  S  S S  S  S S   S S S S S S S S S S S S S S S S
|-------------------------------------|-----------------------------------|
|-------------------------------------|-----------------------------------|
|-------------------------------------|-----------------------------------|
|-------------------------------------|-----------------------------------|
|-------------------------------------|-7-7-7-7-7-7-7-7-7-7-7-7-7-7-7-7---|
|-5-5-5-5-5-5-5-5-5-5--5--5-5--5--5-5-|-----------------------------------|


   E  +S  E +S   E E +S  E +S   E   E +S  E +S  E E +S  E +S  E
|---------------------------------|-----------------------------|
|---------9-(9)-10-------9-(9)-10-|-------7-(7)-9---------------|
|-11-(11)----------9-(9)----------|-7-(7)---------6-(6)-7-(7)-9-|
|---------------------------------|-----------------------------|
|--9--(9)----------7-(7)----------|-5-(5)---------4-(4)---------|
|---------------------------------|-----------------------------|
|
| Gtrs II, III
|  H               H                H             H
|---------------------------------|-----------------------------|
|---------------------------------|-----------------------------|
|-11---------------9--------------|-7-------------6-------------|
|---------------------------------|-----------------------------|
|--9---------------7--------------|-5-------------4-------------|
|---------------------------------|-----------------------------|


  Gtrs I, II
  H    +Q   E E   H    E +S  E +S  E
|---------------|--------------------|
|---------------|--------------------|
|-4----(4)--4-6-|-7----7-(7)-7-(7)-9-|
|-4----(4)--4-6-|-7----7-(7)-7-(7)-9-|
|-2----(2)--2-4-|-5----5-(5)-5-(5)-7-|
|---------------|--------------------|


 Pre-Verse 2
                                                          ~
                                                                |-3-|
  E +S  E   +S  E  E  +S  E   +S  E      E  +S  E   +S  E Q +E  S S S
|------------------------------------|-----------------------------------|
|------------------------------------|-----------------------------------|
|-6-(6)-7---(7)-9--7--(7)-6---(6)----|-----------------------------------|
|---------------------------------7--|---9--(9)-7---(7)-9-5-(5)-5-7-5----|
|------------------------------------|-----------------------------------|
|------------------------------------|-----------------------------------|
|
|------------------------------------|-----------------------------------|
|------------------------------------|-----------------------------------|
|------------------------------------|-----------------------------------|
|-7--7----7-----7--7---7----7-----7--|---5---5----5-----5-5-----5---5-5--|
|-7--7----7-----7--7---7----7-----7--|---5---5----5-----5-5-----5---5-5--|
|-5--5----5-----5--5---5----5-----5--|---3---3----3-----3-3-----3---3-3--|
  E  E    E     E  E   E    E     E      E   E    E     E E     E   E E


        ~                              ~~~
  E +S  H         +E.   E     E  E  E +E   Q.
|--------------------------|---------------3/----------|
|--------------------------|--------1-(1)--3/----------|
|--------------------------|-----2---------------------|
|-4-(4)-7---------(7)---7\-|--3------------------------|
|--------------------------|---------------------------|
|--------------------------|---------------------------|
|
| E  E    E E E E     E E     E  E  E  E   E   E  E  E
|--------------------------|---------------------------|
|--------------------------|---------------------------|
|-7--7----7-7-7-7-----7-7--|-10-10-10-10--12--12-12-12-|
|-7--7----7-7-7-7-----7-7--|-10-10-10-10--12--12-12-12-|
|-5--5----5-5-5-5-----5-5--|--8--8--8--8--10--10-10-10-|
|--------------------------|---------------------------|


 Verse 2
  PM--------------------------------------------------------------|
  S S S S S S S S S S S S S S S S   S S S S S S S S S S S S S S S S
|---------------------------------|----------------------------------|
|---------------------------------|----------------------------------|
|---------------------------------|----------------------------------|
|---------------------------------|----------------------------------|
|-0-0-0-0-0-0-0-0-0-0-0-0-0-0-0-0-|----------------------------------|
|---------------------------------|-0-0-0-0-0-0-0-0-0-0-0-0-0-0-0-0--|
|
| E   E   H               E   E     E   E   H               E   E
|---------------------------------|----------------------------------|
|---------------------------------|----------------------------------|
|-2---2-----------------------2---|----------------------------------|
|-2---2-----------------------2---|-2---2-----------------------2----|
|-0---0-----------------------0---|-2---2-----------------------2----|
|---------------------------------|-0---0-----------------------0----|


  PM----------------------------|
  S S S S S S S S S S S S S S S S   H    E +S  Q +E
|---------------------------------|-------------------|
|---------------------------------|-------------------|
|---------------------------------|-4----7-(7)-9-(9)--|
|---------------------------------|-4----7-(7)-9-(9)--|
|---------------------------------|-2----5-(5)-7-(7)--|
|-3-3-3-3-3-3-3-3-3-3-3-3-3-3-3-3-|-------------------|
|
| W                                 H    E +S  Q +E
|---------------------------------|-------------------|
|---------------------------------|-------------------|
|---------------------------------|-4----7-(7)-9-(9)--|
|-5-------------------------------|-4----7-(7)-9-(9)--|
|-5-------------------------------|-2----5-(5)-7-(7)--|
|-3-------------------------------|-------------------|


 Pre-Chorus 2
  E  E    E   E   E     E   E   E   E  E    E   E     E  E     E   E
|---------------------------------|-----------------------------------|
|---------------------------------|-----------------------------------|
|-7--7----7---7---7-----7---7---7-|-------------------9--9-----9---9--|
|-7--7----7---7---7-----7---7---7-|-7--7----7---7-----9--9-----9---9--|
|-5--5----5---5---5-----5---5---5-|-7--7----7---7-----7--7-----7---7--|
|---------------------------------|-5--5----5---5---------------------|
|
| E +S  E   E   E   +E    E   E     E +S  E   E   +S  E +S   E   E
|---------------------------------|-----------------------------------|
|---------------------------------|-----------------------------------|
|-7-(7)-9---7---7---(7)---9---7---|-6-(6)-7---6---(6)-9-(9)-11---9----|
|---------------------------------|-----------------------------------|
|-5-(5)-7---5---5---(5)---7---5---|-4-(4)-5---4---(4)-7-(7)--9---7----|
|---------------------------------|-----------------------------------|


  E  E    E   E   E     E   E   E
|---------------------------------|
|---------------------------------|
|-7--7----7---7---7-----7---7---7-|
|-7--7----7---7---7-----7---7---7-|
|-5--5----5---5---5-----5---5---5-|
|---------------------------------|
|
| E +S  E   E   E   +E    E   E
|---------------------------------|
|---------------------------------|
|-7-(7)-9---7---7---(7)---9---7---|
|---------------------------------|
|-5-(5)-7---5---5---(5)---7---5---|
|---------------------------------|


  E  E    E   E      E  +S  E    +S    E   E  +E  +E  +E
|---------------------------------------------------------|
|---------------------------------------------------------|
|--------------------9--(9)-7----(7)---8---9--(9)-(9)-(9)-|
|-7--7----7---7-------------------------------------------|
|-7--7----7---7------7--(7)-5----(5)---6---7--(7)-(7)-(7)-|
|-5--5----5---5-------------------------------------------|
|
| E +S  E   E   +S   E  +E     E      +E   E  +E
|---------------------------------------------------------|
|---------------------------------------------------------|
|-6-(6)-7---6---(6)-13-(13)---14-----(14)-13-(13)---------|
|---------------------------------------------------------|
|-4-(4)-5---4---(4)-11-(11)---12-----(12)-11-(11)---------|
|---------------------------------------------------------|


 Chorus 2
  E   E   E   E   E    E    E     E     E   E   E   E   E    E    E     E
|-------------------------------------|-------------------------------------|
|-------------------------------------|-------------------------------------|
|-------------------------------------|-------------------------------------|
|-7---7---7---7---7----7----7-----7---|-4---4---4---4---4----4----4-----4---|
|-7---7---7---7---7----7----7-----7---|-4---4---4---4---4----4----4-----4---|
|-5---5---5---5---5----5----5-----5---|-2---2---2---2---2----2----2-----2---|
|
| E   E   E   E   E   +S  E   +S        E   E   E   E   E   +S  E   +S
|-------------------------------------|-------------------------------------|
|-------------------------------------|-------------------------------------|
|-----------------6---(6)-7---(7)-----|-----------------6---(6)-7---(7)-----|
|-7---7---7---7-----------------------|-4---4---4---4-----------------------|
|-7---7---7---7---4---(4)-5---(5)-----|-4---4---4---4---4---(4)-5---(5)-----|
|-5---5---5---5-----------------------|-2---2---2---2-----------------------|
|
| PM-------------------------------------------------------------------------
| S S S S S S S S S S  S  S S  S  S S   S S S S S S S S S S  S  S S  S  S S
|-------------------------------------|-------------------------------------|
|-------------------------------------|-------------------------------------|
|-------------------------------------|-------------------------------------|
|-------------------------------------|-------------------------------------|
|-------------------------------------|-------------------------------------|
|-5-5-5-5-5-5-5-5-5-5--5--5-5--5--5-5-|-2-2-2-2-2-2-2-2-2-2--2--2-2--2--2-2-|


  E   E   E   E   E    E    E     E     E   E   E   E   E   E   E   E
|-------------------------------------|-----------------------------------|
|-------------------------------------|-----------------------------------|
|-------------------------------------|-9---9---9---9---9---9---9---9-----|
|-7---7---7---7---7----7----7-----7---|-9---9---9---9---9---9---9---9-----|
|-7---7---7---7---7----7----7-----7---|-7---7---7---7---7---7---7---7-----|
|-5---5---5---5---5----5----5-----5---|-----------------------------------|
|
| E   E   E   E   E   +S  E   +S        E   E   E   E   E   E   E   E
|-------------------------------------|-----------------------------------|
|-------------------------------------|-----------------------------------|
|-----------------6---(6)-7---(7)-----|-9---9---9---9---9---9---9---9-----|
|-7---7---7---7-----------------------|-9---9---9---9---9---9---9---9-----|
|-7---7---7---7---4---(4)-5---(5)-----|-7---7---7---7---7---7---7---7-----|
|-5---5---5---5-----------------------|-----------------------------------|
|
|---------------------------------------------------------------------|
| S S S S S S S S S S  S  S S  S  S S   S S S S S S S S S S S S S S S S
|-------------------------------------|-----------------------------------|
|-------------------------------------|-----------------------------------|
|-------------------------------------|-----------------------------------|
|-------------------------------------|-----------------------------------|
|-------------------------------------|-7-7-7-7-7-7-7-7-7-7-7-7-7-7-7-7---|
|-5-5-5-5-5-5-5-5-5-5--5--5-5--5--5-5-|-----------------------------------|


   E  +S  E +S   E E +S  E +S   E   E +S  E +S  E E +S  E +S  E
|---------------------------------|-----------------------------|
|---------9-(9)-10-------9-(9)-10-|-------7-(7)-9---------------|
|-11-(11)----------9-(9)----------|-7-(7)---------6-(6)-7-(7)-9-|
|---------------------------------|-----------------------------|
|--9--(9)----------7-(7)----------|-5-(5)---------4-(4)---------|
|---------------------------------|-----------------------------|
|
|  H               H                H             H
|---------------------------------|-----------------------------|
|---------------------------------|-----------------------------|
|-11---------------9--------------|-7-------------6-------------|
|---------------------------------|-----------------------------|
|--9---------------7--------------|-5-------------4-------------|
|---------------------------------|-----------------------------|


  Gtrs I, II
  H    +Q   E E   H    E +S  E +S  E
|---------------|--------------------|
|---------------|--------------------|
|-4----(4)--4-6-|-7----7-(7)-7-(7)-9-|
|-4----(4)--4-6-|-7----7-(7)-7-(7)-9-|
|-2----(2)--2-4-|-5----5-(5)-5-(5)-7-|
|---------------|--------------------|


  Gtr I
                                                         ~~
   Q.        +E   E.      S     +E   E  E  S  S   S   S  E
|----------------------------------------------------------|
|-17b19-----(17)-17b19---17b19r(17)-15-14-15-16-(17)-17----|
|-------------------------------------------------------14-|
|----------------------------------------------------------|
|----------------------------------------------------------|
|----------------------------------------------------------|
|
| Gtr II
|  W
|----------------------------------------------------------|
|----------------------------------------------------------|
|----------------------------------------------------------|
|----------------------------------------------------------|
|----------------------------------------------------------|
|----------------------------------------------------------|
|
| Gtr III
|  E    E E   E   E    E         E   E  E  E      E      E
|----------------------------------------------------------|
|----------------------------------------------------------|
|--7----7-7---7---7----7---------7---7--6--6------6------6-|
|--7----7-7---7---7----7---------7---7--7--7------7------7-|
|--5----5-5---5---5----5---------5---5--4--4------4------4-|
|----------------------------------------------------------|


               ~~~~~~~~~~~~~~~~~
   S  S  S  S  E  +Q     E  +E   E  E  +S   E.      +S
|----------------------------------10-(10)-10b12r==(10)--|
|-------------------------------10-----------------------|
|-----------------------11-(11)--------------------------|
|-11-12-13-14--------------------------------------------|
|-------------12-(12)------------------------------------|
|--------------------------------------------------------|
|
|  H                  E  E  +E   E  E  +S   E.      +S
|--------------------------------------------------------|
|----------------------------------10-(10)-10b12r==(10)--|
|-------------------------------11-----------------------|
|-----------------------12-(12)--------------------------|
|--------------------------------------------------------|
|--------------------------------------------------------|
|
|  E     E     E   E  E  E   E   E  E   E        E   E
|--------------------------------------------------------|
|--------------------------------------------------------|
|--6-----6-----6---6--4--4---4---4--4---4--------4---4---|
|--7-----7-----7---7--4--4---4---4--4---4--------4---4---|
|--4-----4-----4---4--2--2---2---2--2---2--------2---2---|
|--------------------------------------------------------|


                      ~~
  E +S   E    +S   E  H         S S S S S S S S S S S  S S S  S  +S
|-9-(9)-10---(10)-11-12-------|--------------------------6h7h10-(10)-|
|-----------------------------|---------------------7h10-------------|
|-----------------------------|-----7h9p7-------7h9------------------|
|-----------------------------|-7h9-------9p7h9----------------------|
|-----------------------------|--------------------------------------|
|-----------------------------|--------------------------------------|
|
|                     ~~
| E +S   E    +S   E  H         W
|-----------------------------|--------------------------------------|
|-9-(9)-10---(10)-11-12-------|--------------------------------------|
|-----------------------------|--------------------------------------|
|-----------------------------|--------------------------------------|
|-----------------------------|--------------------------------------|
|-----------------------------|--------------------------------------|
|
| E  E     E       E  E E E E   E   E   E   E   E   E    E    E
|-----------------------------|--------------------------------------|
|-----------------------------|--------------------------------------|
|-6--6-----6-------6--6-6-6-6-|-7---7---7---7---7---7----7----7------|
|-7--7-----7-------7--7-7-7-7-|-7---7---7---7---7---7----7----7------|
|-4--4-----4-------4--4-4-4-4-|-5---5---5---5---5---5----5----5------|
|-----------------------------|--------------------------------------|


                          ~~
  S  S  S  S  S  +S  S S  Q         E +S   E   +S   E E +S  E   +S   E
|-9-10-11-12-10-(10)-8-9----------|----------------10-9-(9)-------------|
|------------------------10-------|-3-(3)-/7---(7)----------9---(9)-----|
|---------------------------------|----------------------------------9--|
|---------------------------------|-------------------------------------|
|---------------------------------|-------------------------------------|
|---------------------------------|-------------------------------------|
|
| W                                 E +S   E   +S   E E +S  E   +S   E
|---------------------------------|-------------------------------------|
|---------------------------------|----------------10-9-(9)-------------|
|---------------------------------|-2-(2)-/7---(7)----------9---(9)-----|
|---------------------------------|---------------------------------11--|
|---------------------------------|-------------------------------------|
|---------------------------------|-------------------------------------|
|
| E     E     E      E    E E E E   E  E     E      E E  E    E      E
|---------------------------------|-------------------------------------|
|---------------------------------|-------------------------------------|
|-6-----6-----6------6----6-6-6-6-|-4--4-----4------4-6--6----6------6--|
|-7-----7-----7------7----7-7-7-7-|-4--4-----4------4-6--6----6------6--|
|-4-----4-----4------4----4-4-4-4-|-2--2-----2------2-4--4----4------4--|
|---------------------------------|-------------------------------------|


  S  S  S S  S  S S  S  S  S  S  S  S  S  S  S
|-------------------------10-11-13-15-13-15-16-|
|---------9-11----9-11-13----------------------|
|-8-10-12------12------------------------------|
|----------------------------------------------|
|----------------------------------------------|
|----------------------------------------------|
|
| S  S  S S  S  S S  S  S  S  S  S  S  S  S  S
|----------------------------------10----10-11-|
|--------------------------9-11-13----13-------|
|---------8-10----8-10-12----------------------|
|-8-10-12------12------------------------------|
|----------------------------------------------|
|----------------------------------------------|
|
| E     E    E    E     E     E     E     E
|----------------------------------------------|
|----------------------------------------------|
|-8-----8----8----8-----8-----8-----8-----8----|
|-8-----8----8----8-----8-----8-----8-----8----|
|-6-----6----6----6-----6-----6-----6-----6----|
|----------------------------------------------|


 Chorus 3
  E   E   E   E   E    E    E     E     E   E   E   E   E    E    E     E
|-------------------------------------|-------------------------------------|
|-------------------------------------|-------------------------------------|
|-------------------------------------|-------------------------------------|
|-8---8---8---8---8----8----8-----8---|-5---5---5---5---5----5----5-----5---|
|-8---8---8---8---8----8----8-----8---|-5---5---5---5---5----5----5-----5---|
|-6---6---6---6---6----6----6-----6---|-3---3---3---3---3----3----3-----3---|
|
| E   E   E   E   E   +S  E   +S        E   E   E   E   E   +S  E   +S
|-------------------------------------|-------------------------------------|
|-------------------------------------|-------------------------------------|
|-----------------7---(7)-8---(8)-----|-----------------7---(7)-8---(8)-----|
|-8---8---8---8-----------------------|-5---5---5---5-----------------------|
|-8---8---8---8---5---(5)-6---(6)-----|-5---5---5---5---5---(5)-6---(6)-----|
|-6---6---6---6-----------------------|-3---3---3---3-----------------------|
|
| PM-------------------------------------------------------------------------
| S S S S S S S S S S  S  S S  S  S S   S S S S S S S S S S  S  S S  S  S S
|-------------------------------------|-------------------------------------|
|-------------------------------------|-------------------------------------|
|-------------------------------------|-------------------------------------|
|-------------------------------------|-------------------------------------|
|-------------------------------------|-------------------------------------|
|-6-6-6-6-6-6-6-6-6-6--6--6-6--6--6-6-|-3-3-3-3-3-3-3-3-3-3--3--3-3--3--3-3-|


  E   E   E   E   E    E    E     E      E    E    E    E    E    E    E    E
|-------------------------------------|-------------------------------------------|
|-------------------------------------|-------------------------------------------|
|-------------------------------------|-10---10---10---10---10---10---10---10-----|
|-8---8---8---8---8----8----8-----8---|-10---10---10---10---10---10---10---10-----|
|-8---8---8---8---8----8----8-----8---|--8----8----8----8----8----8----8----8-----|
|-6---6---6---6---6----6----6-----6---|-------------------------------------------|
|
| E   E   E   E   E   +S  E   +S         E    E    E    E    E    E    E    E
|-------------------------------------|-------------------------------------------|
|-------------------------------------|-------------------------------------------|
|-----------------7---(7)-8---(8)-----|-10---10---10---10---10---10---10---10-----|
|-8---8---8---8-----------------------|-10---10---10---10---10---10---10---10-----|
|-8---8---8---8---5---(5)-6---(6)-----|--8----8----8----8----8----8----8----8-----|
|-6---6---6---6-----------------------|-------------------------------------------|
|
|-----------------------------------------------------------------------------|
| S S S S S S S S S S  S  S S  S  S S    S S  S S  S S  S S  S S  S S  S S  S S
|-------------------------------------|-------------------------------------------|
|-------------------------------------|-------------------------------------------|
|-------------------------------------|-------------------------------------------|
|-------------------------------------|-------------------------------------------|
|-------------------------------------|--8-8--8-8--8-8--8-8--8-8--8-8--8-8--8-8---|
|-6-6-6-6-6-6-6-6-6-6--6--6-6--6--6-6-|-------------------------------------------|


  Gtr I
   E  +S   E  +S   E  E  +S   E  +S   E E +S  E +S   E E +S  E +S   E
|---------------------------------------------------------------------|
|---------10-(10)-11---------10-(10)-11-------8-(8)-10----------------|
|-12-(12)------------10-(10)------------8-(8)----------7-(7)-8-(8)-10-|
|---------------------------------------------------------------------|
|-10-(10)-------------8--(8)------------6-(6)----------5-(5)----------|
|---------------------------------------------------------------------|
|
| Gtrs II, III
|  H                  H                 H              H
|---------------------------------------------------------------------|
|---------------------------------------------------------------------|
|-12-----------------10-----------------8--------------7--------------|
|---------------------------------------------------------------------|
|-10------------------8-----------------6--------------5--------------|
|---------------------------------------------------------------------|


  Gtrs I, II
  H    +Q   E E   H    E +S  E +S   E
|---------------|---------------------|
|---------------|---------------------|
|-5----(5)--5-7-|-8----8-(8)-8-(8)-10-|
|-5----(5)--5-7-|-8----8-(8)-8-(8)-10-|
|-3----(3)--3-5-|-6----6-(6)-6-(6)--8-|
|---------------|---------------------|


 Outro
                                                        ~
                                                                |-3-|
  E +S  E   +S   E E +S  E   +S  E    E  +S  E   +S   E Q   +E  S S S
|----------------------------------|----------------------------------|
|----------------------------------|----------------------------------|
|-7-(7)-8---(8)-10-8-(8)-7---(7)---|----------------------------------|
|--------------------------------8-|-10-(10)-8---(8)-10-6---(6)-6-8-6-|
|----------------------------------|----------------------------------|
|----------------------------------|----------------------------------|
|
| E  E    E      E E  E    E     E    E   E    E      E E E  E  E
|----------------------------------|----------------------------------|
|----------------------------------|----------------------------------|
|----------------------------------|----------------------------------|
|-8--8----8------8-8--8----8-----8-|--6---6----6------6-6-6--6--6-----|
|-8--8----8------8-8--8----8-----8-|--6---6----6------6-6-6--6--6-----|
|-6--6----6------6-6--6----6-----6-|--4---4----4------4-4-4--4--4-----|


         ~~~                     ~~~~~~~~~~~~~~~~~~
  E +S  +H          +E.   +E     Q   +Q    Q   +Q
|------------------------------|----------------------|
|------------------------------|----------------------|
|------------------------------|----------------------|
|-5-(5)-(5)---------(5)---(5)\-|-4---(4)---6---(6)----|
|------------------------------|----------------------|
|------------------------------|----------------------|
|
| E  E      E E E E     E  E     E E  E  E E E  E  E
|------------------------------|----------------------|
|------------------------------|----------------------|
|------------------------------|----------------------|
|-5--5------5-5-5-5-----5--5---|-4-4--4--4-6-6--6--6--|
|-5--5------5-5-5-5-----5--5---|-4-4--4--4-6-6--6--6--|
|-3--3------3-3-3-3-----3--3---|-2-2--2--2-4-4--4--4--|


  Gtrs I, II
  H    W        +W         +W         +H
|--------------------------------------------*|
|--------------------------------------------*|
|------3--------(3)--------(3)--------(3)----*|
|------3--------(3)--------(3)--------(3)----*|
|------1--------(1)--------(1)--------(1)----*|
|--------------------------------------------*|




--------------------------------------------------------------------------------


Duration Legend
---------------
W - whole; H - half; Q - quarter; E - 8th; S - 16th; T - 32nd; X - 64th; a - acciaccatura
+ - note tied to previous; . - note dotted; .. - note double dotted
Uncapitalized letters represent notes that are staccato (1/2 duration)
Irregular groupings are notated above the duration line
Duration letters will always appear directly above the note/fret number it represents the
duration for.  Duration letters with no fret number below them represent rests.  Multi-
bar rests are notated in the form Wxn, where n is the number of bars to rest for.  Low
melody durations appear below the staff

Tablature Legend
----------------
 h   - hammer-on
 p   - pull-off
 b   - bend
 pb  - pre-bend
 r   - bend release (if no number after the r, then release immediately)
 /\  - slide into or out of (from/to "nowhere")
 s   - legato slide
 S   - shift slide
 - natural harmonic
[n]  - artificial harmonic
n(n) - tapped harmonic
 ~   - vibrato
 tr  - trill
 T   - tap
 TP  - trem. picking
 PM  - palm muting
\n/  - tremolo bar dip; n = amount to dip
 \n  - tremolo bar down
 n/  - tremolo bar up
/n\  - tremolo bar inverted dip
 =   - hold bend; also acts as connecting device for hammers/pulls
 <> - volume swell (louder/softer)
 x   - on rhythm slash represents muted slash
 o   - on rhythm slash represents single note slash

Misc Legend
-----------
 |  - bar
||  - double bar
||o - repeat start
o|| - repeat end
*|  - double bar (ending)
 :  - bar (freetime)
 $  - Segno
 &  - Coda
Tempo markers -  = BPM(8/16=s8/s16), where s8 = swing 8ths, s16 = swing 16ths





Comments


Popular Crush 40 tabs & chords
Escape From The City Chords
Is It You Chords
Fight The Knight Intro Tabs
I Am (All Of Me) Tabs
Live And Learn 2 Tabs
Metal Harbor 2 Tabs
Open Your Heart Tabs
Open Your Heart 1 Tabs
Sonics Return Tabs
What Im Made Of 1 Tabs


Song lyrics



↑ Back to top | Tablatures and chords are parodies/interpretations of the original songs. You may use it for private study, scholarship, research or language learning purposes only
© 2014 AZChords.com Contact us | Privacy policy | DMCA | Add/correct tabs | Request tabs | Top 50 tabs