» » »

Crush 40, All Hail Shadow Tabs (ver.1)

Artists:  A B C D E F G H I J K L M N O P Q R S T U V W X Y Z # 

All Hail Shadow Tabs (ver.1)

Crush 40 Tabs
 Rating:
3.6/5 (5 votes)
All Hail Shadow lessons Tabs too difficult? Try these video lessons and learn fast
                (Intro)
Crush 40 - (rules)
All Hail Shadow - intro
Sonic the Hedgehog Vocal Traxx Several Wills
Genre: Game Music
Legendary Game Music from: Sonic 2006

Crush 40 is:
Johnny Gioeli – vocals     tuning-standard ebgdaE
Jun Senoue - guitars
e--------------------------------------------|\
b--------------------------------------------| \
g--------------------------------------------|  \
d-7---9-9-----7---9-9-----7-9-7-9------------|   \
a-7---9-9-----7---9-9-----7-9-7-9------------|    \
E-5---7-7-----5---7-7-----5-7-5-7------------|     \
                                                 x3  e-------------------------------------| /
b--------------------------------------------|    /
g------------------------------------------7-|   /
d-7---9-9-----7---9-9-----7-9-7-9----------7-|  /
a-7---9-9-----7---9-9-----7-9-7-9----------5-| /
E-5---7-7-----5---7-7-----5-7-5-7------------|/

in background                              x4
e-5---7-7--5---7-7--5---7-7--5--7--10~-------|
b--------------------------------------------|
g--------------------------------------------|
d--------------------------------------------|
a--------------------------------------------|
E--------------------------------------------|
                                                     x2                       
e--------------------------|--------------------------|
b--------------------------|--------------------------|
g--------------------------|--------------------------|
d---3-------3--------5~----|---3-------3--------6~----|
a-----2-2-----2-2----------|-----2-2-----2-2----------|
E--------------------------|--------------------------|
      PM      PM              PM      PM

any comments - keep it to yourself

                     Remember game music is a genre 
            
Submit corrections

comments powered by Disqus
↑ Back to top | Crush 40 Tabs for All Hail Shadow. Lyrics for acoustic guitar and electric guitar. Tablatures and chords are parodies/interpretations of the original songs. You may use it for private study, scholarship, research or language learning purposes only