>
 >
The Forest Whispers My Name 2

The Forest Whispers My Name 2 Guitar Tabs

Cradle Of Filth - The Forest Whispers My Name 2 chords, tabs, tablatures, lyrics

Guitar lessons | Add/correct | Request | Top 50 tabs Artists:  A B C D E F G H I J K L M N O P Q R S T U V W X Y Z 0-9

The Forest Whispers My Name 2 Guitar Tabs – Cradle Of Filth

CD, Sheet music, Poster

Do you like The Forest Whispers My Name 2? Share with your friends now
Bass TabsBass Tabs v2TabsTabs v2Tabs v3

 /   slide up
 \   slide down
 .   palm mute
 H   harmonic Feedback
 ~   vibrato 
 p   pull-off
( )  ghost note

NoTES:
	Tune down 1 whole step D G C F A d

	This song is played with 2 Guitars
	Listen the song for take correct times, etc...


Intro    Riff 1	(00:17)				      Fill 1 (00:45)
   4x						       
d||-------------------------------------------------| |---|
A||-------------------------------------------------| |---|
F||----------------------------------------------2~~| |---|
C||-2---3/-11---3-3-3-3-3333-2---3/-11---3-3-3-3----| |-2-|
G||-2---3/-11---3-3-3-3-3333-2---3/-11---3-3-3-3----| |-2-|
D||-0---1/-9----1-1-1-1-1111-0---1/-9----1-1-1-1----| |-0-|
                . . . . ....             . . . . H

pos-intro   Riff 2 (00:53)
   2x
C||-3p2------------------3p2------------------|
G||----3p2------------------3p2---------------|
D||-------3p2-0--0-0-0-0--------3p2-4444-1111-|


Base   

Riff 3 (1:00)
   4x
F||---------55555-4444--------5555--444-----|
C||--222222-55555-4444-333333-5555--444-1-2-|
G||--222222-33333-2222-333333-3333--222-1-2-|
D||--000000------------111111-----------3-0-|


Riff 4 (1:19)
   4x
C||-------------------------------------|
G||-(3)-/9---(3)-/10---(3)-/9---(3)-/8--| 
D||-------------------------------------|


Riff 5 (2:02)
           4x				     
A||------|-------------------------------|   
F||------|-------------------------------|   
C||------|----9--8-7---------------------|   
G||-6/-7-|-7---------8--10-8----------7--|   
D||------|-------------------10--7-10----|   

Gtr2 play with riff 5
					      Fill 2 (2:35)
A||-------11--9-9--------------------|        |----|
F||-9---9-11--9-9-10--12-12-7----7-9-|        |-9\-|
C||-9---9-9---7-7-10--12-12-7--9-7-9-|        |-9\-|
G||-7---7---------8---10-10-5--9-5-7-|        |-7\-| 
D||----------------------------7-----|        |----|


KEYBORD INTERLUDES

Riff 6 (2:42)
   7x			          1x
F||-9---9-9-11-12---11--12--11-9-|-9---9-9-11-12---11--12--11-7-|
C||-9---9-9-11-12---11--12--11-9-|-9---9-9-11-12---11--12--11-7-|
G||-7---7-7-9--10---9---10--9--7-|-7---7-7-9--10---9---10--9--5-|


Riff 7 (3:43)
Fast Picking
   6x
C||---------------------------------------------------------7777-----------|
G||-777777-1010-99-------------1010-99------777-1010-999-10------1010-99-7-|
D||----------------1010-888888---------1010--------------------------------|

Riff 7.1
   2x
C||-------------------------------------------77777--------|
G||-7-7-10-9-1010-----10-9-1010-7-7-10-9-1010-------10-9-7-| 
D||---------------8-8--------------------------------------|


Riff 7 2x 


Ending
Riff 2                                         Fill 1
   2x
C||-3p2------------------3p2------------------||-2\-|
G||----3p2------------------3p2---------------||-2\-|
D||-------3p2-0--0-0-0-0--------3p2-4444-1111-||-0\-|





Comments


Popular Cradle Of Filth tabs & chords
Nymphetamine Bass Tabs
Beauty Slept In Sodom Tabs
Cthulhu Dawn Part One Tabs
Dirge Inferno Tabs
Forgive Me Father I Have Sinned 3 Tabs
Illicitus Tabs
Lovesick For Mina 2 Tabs
Lovesick For Mina 3 Tabs
Nymphetamine 4 Tabs
Presents From The Poison-Hearted Tabs


Song lyrics



↑ Back to top | Tablatures and chords are parodies/interpretations of the original songs. You may use it for private study, scholarship, research or language learning purposes only
© 2014 AZChords.com Contact us | Privacy policy | DMCA | Add/correct tabs | Request tabs | Top 50 tabs