» » »

Cradle Of Filth, The Forest Whispers My Name Tabs (ver.2)

Artists:  A B C D E F G H I J K L M N O P Q R S T U V W X Y Z # 

The Forest Whispers My Name Tabs (ver.2)

Cradle Of Filth Tabs
 Rating:
4/5 (4 votes)
The Forest Whispers My Name lessons Tabs too difficult? Try these video lessons and learn fast
1
                Tune down one whole step.

Riff 1

x 4

-----------------------------------
-----------------------------------
-----------------------------------
-2---9-11-11\3-3-3-3---3-3-3-3-3-3-
-2---9-11-11\3-3-3-3---3-3-3-3-3-3-
-0---7-9--9-\1-1-1-1---1-1-1-1-1-1-
               ^ ^ ^   ^ ^ ^ ^ ^ ^

---------------------------
---------------------------
---------------------------
-2---9-11-11\3---3-3-3-3-3-
-2---9-11-11\3---3-3-3-3-3-
-0---7-9--9-\1---1-1-1-1-1-
                 ^ ^ ^ ^ ^

Riff 2

x 4

---------------------------------
---------------------------------
---------------------------------
-3p2p0---------------------------
-------3p2p0---------------------
-------------4p1-0-0-0-0-0-0-0-0-

---------------------------------
---------------------------------
---------------------------------
-3p2p0---------------------------
-------3p2p0---------------------
-------------4p1-4-4-4-4-1-1-1-1-


Riff 3

x 4

-----------------------------------
-----------------------------------
-----------------------------------
-2-2---2-2-2---2-10-10--10-9-9---9-
-2-2---2-2-2---2-10-10--10-9-9---9-
-0-0---0-0-0---0-8--8---8--7-7---7-

-----------------------------------
-----------------------------------
-----------------------------------
-3-3---3-3-3---3-10-10--10-9-9---3-
-3-3---3-3-3---3-10-10--10-9-9---3-
-1-1---1-1-1---1-8--8---8--7-7---1-

Riff 4

x 4

----------------
----------------
----------------
----------------
-7v--8v--7v--6v-
----------------
                                                                              
Riff 5

x 4

------------------------------------------
------------------------------------------
------------------------------------------
-------9---9-8-7--------------------------
-7---7-------------8---8-10-8---5---5---5-
--------------------------------------7---

Riff 6

--------------------------
--------------------------
--------------------------
-9---9-11-12---11-12-11-9-
-7---7-9--10---9--10-9--7-
--------------------------

Riff 7

-------------------------------------------------------
-------------------------------------------------------
-------------------------------------------------------
----------------------------------------7--------------
-7---9-10-9-7-----9-10-9-5-7---9-10-9-7-----10---9---7-
--------------8----------------------------------------

** Riff 2 **


The Principle of Evil Made Flesh




Tune down one whole step.

Intro

x 4

-------------------
-------------------
-------------------
-3-3/4\3---7-6-5-6-
-3-3/4\3---7-6-5-6-
-1-1/2\1---5-4-3-4-

Riff 1

|---------------------------------|
|---------------------------------|
|---------------------------------|
|-3---3-3-3-3-3-3-7---6---5---6---|
|-3---3-3-3-3-3-3-7---6---5---6---|
|-1---1-1-1-1-1-1-5---4---3---4---|
| 1 e + a 2 e + a 3 e + a 4 e + a |
|                                 |
|---------------------------------|
|---------------------------------|
|-----------------9---8---7---8---|
|---------------------------------|
|---------------------------------|
|---------------------------------|
  1 e + a 2 e + a 3 e + a 4 e + a

Riff 2

x 2

------------------------
------------------------
-8---9---8---9---12--11-
-8---9---8---9---12--11-
-6---7---6---7---10--9--
------------------------

** Riff 1 **

Riff 3

|-----------------------------------------------------------------|
|-----------------------------------------------------------------|
|-----------------------------------------------------------------|
|-----------------------------------------------------------------|
|-7-8-7-6-7-8-7-6-7-8-7-6-7-8-7-6-7-8-7-6-7-8-7-6-7-8-7-6-7-8-7-6-|
|-----------------------------------------------------------------|
| 1 + 2 + 3 + 4 + 1 + 2 + 3 + 4 + 1 + 2 + 3 + 4 + 1 + 2 + 3 + 4 + |
|                                                                 |
|-----------------------------------------------------------------|
|-----------------------------------------------------------------|
|-----------------------------------------------------------------|
|-----------------------------------------------------------------|
|-----------------7-8-7-6-7-8-7-6-7-8-7-6-7-8-7-6-7-8-7-6-7-8-7-6-|
|-----------------------------------------------------------------|
  1 + 2 + 3 + 4 + 1 + 2 + 3 + 4 + 1 + 2 + 3 + 4 + 1 + 2 + 3 + 4 +

Riff 4

x 4

----------------------------
----------------------------
----------------------------
-2---3-5-3---2---9-10-9-7-3-
-2---3-5-3---2---9-10-9-7-3-
-0---1-3-1---0---7-8--7-5-1-

Riff 5

|-----------------------------------|
|-----------------------------------|
|-------------------10--------------|
|-7-----------------10--------------|
|-7-----------------8---------------|
|-5---------------------------------|
|                                   |
|-----------------------------------|
|-----6-5---5-----------6-5---5-----|
|---------7---7-5-----------7---7-5-|
|-----------------------------------|
|-----------------------------------|
|-----------------------------------|

|-----------------------------------|
|-----------------------------------|
|-7-----------------9---------------|
|-7-----------------9---------------|
|-5-----------------7---------------|
|-----------------------------------|
|                                   |
|-----------------------------------|
|-----------------------6-5---5-----|
|---------------------------7---7-5-|
|-----------------------------------|
|-----------------------------------|
|-----------------------------------|

Solo /w Riff 5 chords
     
-------------------------------5---7---8-7-8-7-8---10---8-7-8-7-8-7-
-----------5---6-5-6-5-6---8----------------------------------------
-5-4---7------------------------------------------------------------

-10---12---13-12-------------------------------------------------------------
-----------------12b13-12b13r12-10-9-----------------------------------------
---------------------------------------9-10---10-9-10-9-10----------------9\-
-----------------------------------------------------------10-9-10-9-10------

Riff 6

---------------
---------------
---------------
-7---8---3---2-
-7---8---3---2-
-5---6---1---0-

Riff 7

-----------------------------------------------------------
-----------------------------------------------------------
-----------------------------------------------------------
-----------------------------------------------------------
-7h8-7p5---7h8-7p5---7h8-7p5---7h8-7p5---7h8-7p5---7h8-7p5-
-----------------------------------------------------------

-------------|---------
-------------|---------
-------------|---------
-11-10-13-12-|-11-10-8-
-11-10-13-12-|-11-10-8-
-9--8--11-10-|-9--8--6-

Riff 8

----------------------------------------
----------------------------------------
----------------------------------------
-12/14-14-14---15-15---13p12-12-12------
-12/14-14-14---15-15---13p12-12-12------
-10/12-12-12---15-15---13p12-12-12------

Bass Solo

-----------------------------  ------
-----------------------------  ------
-7-8-7-5-7-5---5-------------  ------
-------------8---8-7-8-5-4-5-  7-5-1-

** Riff 1 **

** Riff 2 **

Outro

x 3

------------------------------
------------------------------
------------------------------
-2---3-5-3---2---9---10-9-7-3-
-2---3-5-3---2---9---10-9-7-3-
-0---1-3-1---0---7---8--7-5-1-

x 1

-----------------------------------------
-----------------------------------------
-----------------------------------------
-2---3-5-3---2---9-10-9-7-3---9-10-9-7-3-
-2---3-5-3---2---9-10-9-7-3---9-10-9-7-3-
-0---1-3-1---0---7-8--7-5-1---7-8--7-5-1-

--------------------------------------------------
--------------------------------------------------
--------------------------------------------------
-9-10-9-7-3---9-10-9-7-3--9-10-9-7-3---9-10-9-7-3-
-9-10-9-7-3---9-10-9-7-3--9-10-9-7-3---9-10-9-7-3-
-7-8--7-5-1---7-8--7-5-1--7-8--7-5-1---7-8--7-5-1-
            
Submit corrections

comments powered by Disqus
↑ Back to top | Cradle Of Filth Tabs for The Forest Whispers My Name. Lyrics for acoustic guitar and electric guitar. 1 Tablatures and chords are parodies/interpretations of the original songs. You may use it for private study, scholarship, research or language learning purposes only