» » »

Cradle Of Filth, The Forest Whispers My Name Bass tabs (ver.1)

Artists:  A B C D E F G H I J K L M N O P Q R S T U V W X Y Z # 

The Forest Whispers My Name Bass tabs (ver.1)

Cradle Of Filth Tabs
 Rating:
4/5 (4 votes)
The Forest Whispers My Name lessons Tabs too difficult? Try these video lessons and learn fast
1
                
drop D tuning:

f|-----------------------------------------------|
c|*---------------------------------------------*|   4x
g|*-------4---2---1-2-1---------4---2---1-2-1---*|
d|--0---3---3---3-------3-0---3---3---3-------3--|


f|---------------------------------------------------|
c|*-3-2-0-------------------3-2-0-------------------*|  4x
g|*-------3-2-0-------------------3-2-0-------------*|
d|--------------3-1-0-0-0-0-------------3-1-4-4-1-1--|


f|-----------------------------------------------------------|
c|*---------------------------------------------------------*| 2x?
g|*-----------------3333333322222222----------------2222----*|
d|--0000000000000000----------------1111111111111111----3333-|


f|-------------------------------------------------------|
c|*-----------------------------------------------------*|  1x
g|*-7/-8/-7/-6/--7/-8/-7/-6/----------------------------*|
d|----------------------------7/-8/-7/-6/--7/-8/-7/-6/---|


f|---------------------------------------------------------|
c|*-------------------------------------------------------*| 2x 
g|*------9--9-8-7--------------------9--9-8-7-------------*|
d|--7--7----------8--8-10-8-5---7--7----------8--8-10-8-5--|


f|-----------------|
c|*---------------*|
g|*---------------*|
d|--0/-------------|


f|--------------------------------------------------|
c|*------------------------------------------------*|  4x
g|*------------------------------------------------*|
d|--0000000-2-3333-2-2-3-2-0000000-2-3333-2-2-3-2---|


f|-----------------|
c|*---------------*|
g|*-5/------------*|
d|-----------------|


f|----------------------------7-5--|
c|*-2--5p4p3---5p4p3-2--5p4p3-----*|    8x  
g|*----------3--------------------*|
d|---------------------------------|


f|---------------------------------------------------|
c|*-3-2-0-------------------3-2-0-------------------*|  4x
g|*-------3-2-0-------------------3-2-0-------------*|
d|--------------3-1-0-0-0-0-------------3-1-4-4-1-1--|


f|----------------|
c|*--------------*|
g|*--------------*|
d|--0/------------|
            
Submit corrections

comments powered by Disqus
↑ Back to top | Cradle Of Filth Bass for The Forest Whispers My Name. Lyrics for acoustic guitar and electric guitar. 1 Tablatures and chords are parodies/interpretations of the original songs. You may use it for private study, scholarship, research or language learning purposes only