>
 >
Scorched Earth Erotica 2

Scorched Earth Erotica 2 Guitar Tabs

Cradle Of Filth - Scorched Earth Erotica 2 chords, tabs, tablatures, lyrics

Guitar lessons | Add/correct | Request | Top 50 tabs Artists:  A B C D E F G H I J K L M N O P Q R S T U V W X Y Z 0-9

Scorched Earth Erotica 2 Guitar Tabs – Cradle Of Filth

CD, Sheet music, Poster

Do you like Scorched Earth Erotica 2? Share with your friends now
TabsTabs v2Tabs v3
Cradle Of Filth
Scorched Earth Erotica

Tuning: (low to high) D G C F A D

This songs hard to play, gotta stretch your fingers between frets 2 and 7, if you
have small hands like me then its hard but its a  great cradle song.

Riff A (clean - guitar 1 only)
|-------------------|
|-------------------|
|-------------------|
|1////5p4h5p4h5p4---| (keep the hammering on and pulling off going for a while)
|-------------------|
|-------------------|

Riff B
|------------------------------------|
|------------------------------------|
|------------------------------------|
|------------------------------------|
|9--7-9-10--9-7--12--10-9--9-10-9-10-|
|7--7-7--7--7-7---7---7-7--7--8-7--8-|

Riff C
|-------------------------------|
|-------------------------------|
|-------------------------------|
|-------------------------------|
|4--2-4-5--4-2--7--5-4--4-5-4-5-|
|2--2-2-2--2-2--2--2-2--2-3-2-3-|

Riff D
|----------------------------------------------------------------------------
|----------------------------------------------------------------------------
|----------------------------------------------------------------------------
|9---10---9------------------------9---10---8--------------------------------
|7----8---7------------3344----33447----8---6--------7h8p7-6h7p6-5h6p5-4h5p4-
|-000--000-000000003344----3344-----000--000-00000000------------------------

|------------------------------------------------------------------|
|------------------------------------------------------------------|
|------------------------------------------------------------------|
|9---10---9----------------------------------------5-5-4-4-3-3-----|
|7----8---7------------3344----33447-7-5-5-4-4-3-3-3-3-2-2-1-1-3-3-|
|-000--000-000000003344----3344----5-5-3-3-2-2-1-1-------------1-1-|

Riff E
	Guitar 1
|------------------------------------------------------------------------------------------------|
|------------------------------------------------------------------------------------------------|
|------------------------------------------------------------------------------------------------|
|-----------------------------------------------10~~~~~~~~~~~~~~~~~~~~~~~9~~~~~~~~~~~~~~~~~~~~~~~|
|9~~~~~~~~~~~~~~~~~~~~~~~8~~~~~~~~~~~~~~~~~~~~~~~8~~~~~~~~~~~~~~~~~~~~~~~7~~~~~~~~~~~~~~~~~~~~~~~|
|7~~~~~~~~~~~~~~~~~~~~~~~6~~~~~~~~~~~~~~~~~~~~~~~------------------------------------------------|
	Guitar 2
|------------------------------------------------------------------------------------------------|
|------------------------------------------------------------------------------------------------|
|------------------------------------------------------------------------------------------------|
|------------------------------------------------------------15----------------------14----------|
|------------14----------------------13----------13-15-16-15----15-16-15-12-14-15-14----14-15-14-|
|12-14-15-14----14-15-14-11-13-14-13----13-14-13-------------------------------------------------|

Riff F
	Guitar 1 (palm mute)
|------------------------------------------------------------------------------------------------|
|------------------------------------------------------------------------------------------------|
|------------------------------------------------------------------------------------------------|
|---------------------------------------------10-(x16)--------------------9-(x16)----------------|
|9-(x 16)-----------------8(x16)---------------8--------------------------7----------------------|
|7------------------------6----------------------------------------------------------------------|
	Guitar 2
|------------------------------------------------------------------------------------------------|
|------------------------------------------------------------------------------------------------|
|------------------------------------------------------------------------------------------------|
|---------------------------------------------------------15----------15----------14----------14-|
|---------14----------14----------13----------13-13-15-16----13-15-16----12-14-15----12-14-15----|
|12-14-15----12-14-15----11-13-14----11-13-14----------------------------------------------------|

Riff G
	Guitar 1 (palm mute) (they are 11's not 1's)
|----------------------------------------------------------------------------------|
|----------------------------------------------------------------------------------|
|----------------------------------------------------------------------------------|
|----------------------------------------1010101010101010109999--------------------|
|--------999999998888------------88888888----------------------11111111777711111111|
|77777777------------999966669999--------------------------------------------------|
	Guitar 2
(Same as riff F)

Riff H
|------------------------------------|
|------------------------------------|
|------------------------------------|
|------------------------5-4-3-------|
|9--7-9-10--9-7--7-5-4-3-3-2-1-3-2~~~|
|7--7-7--7--7-7--5-3-2-1-------1-0~~~|

Riff I
	Guitar 1 only (clean)
|---------------------------------------------------------------|
|---------------------------------------------------------------|
|--9---9---9---9---7---7---7---7---2---2---2---2---2---2---2---2|
|-9---9---9---9---9---9---9---9---2---2---2---2---2---2---2---2-|
|7---7---7---7---7---7---7---7---3---3---2---2---0---0---0---0--|
|---------------------------------------------------------------|

Riff J
	Guitar 1 (clean)
(same as Riff I)
	Guitar 2
|--------------------------------------------------------------|
|--------------------------------------------------------------|
|--------------------------------------------------------------|
|2~~~~~~~~~~~~~~~~~~~~~~~~~~~~~5---5---4---4---2---2---2-2-----|
|2~~~~~~~~~~~~~~~~~~~~~~~~~~~~~3---3---2---2---0---0---0-0-5-4-|
|0~~~~~~~~~~~~~~~~~~~~~~~~~~~~~----------------------------3-2-|

Riff K
	Guitar 1 (clean)
(same as Riff I)
	Guitar 2
|--------------------------------------------------------------|
|--------------------------------------------------------------|
|--------------------------------------------------------------|
|2~~~~~~~~~~~~~~~~~~~~~~~~~~~~~~~~~~~~~~~~~~~~~~~~~~~~~~~~~~~~~|
|2~~~~~~~~~~~~~~~~~~~~~~~~~~~~~~~~~~~~~~~~~~~~~~~~~~~~~~~~~~~~~|
|0~~~~~~~~~~~~~~~~~~~~~~~~~~~~~~~~~~~~~~~~~~~~~~~~~~~~~~~~~~~~~|

Riff L
	Guitar 1 (clean)
(same as Riff I)
	Guitar 2
|--------------------------------------------------------------|
|--------------------------------------------------------------|
|--------------------------------------------------------------|
|2-2-2-2-2-2-2-2-2-2-2-2-2-2-2-5-5-5-5-4-4-3-3-2-2-2-2-2-2-----|
|2-2-2-2-2-2-2-2-2-2-2-2-2-2-2-3-3-3-3-2-2-2-2-0-0-0-0-0-0-5-4-|
|0-0-0-0-0-0-0-0-0-0-0-0-0-0-0-----------------------------3-2-|

Riff M
	Guitar 1
|----------------------------------------------------|
|----------------------------------------------------|
|----------------------------------------------------|
|2~~~~~~~~~~~~~~~~~~~~~~~~~~~~~~~~~~~~~~~~~~~~~~~~~~~|
|2~~~~~~~~~~~~~~~~~~~~~~~~~~~~~~~~~~~~~~~~~~~~~~~~~~~|
|0~~~~~~~~~~~~~~~~~~~~~~~~~~~~~~~~~~~~~~~~~~~~~~~~~~~|
	Guitar 2 (all tremelos)
|----------------------------------------------------|
|----------------------------------------------------|
|----------------------------------------------------|
|-----------------------10-----9-----7-----12---14---|
|7---------6--7--9--10-------------------------------|
|----------------------------------------------------|


ORDER

Riff A
Riff B x4
Riff C x2
Riff B x2
Riff D x2
Riff B x2
Riff C x2
Riff D x2
Riff E x2
Riff F x2
Riff G x2
Riff B x2
Riff H
Riff I
Riff J
Riff K x2
Riff L x2
Riff M x4
Riff K
Riff I





Comments


Popular Cradle Of Filth tabs & chords
Born In A Burial Gown 3 Bass Tabs
Death Comes Ripping Bass Tabs
Devil Woman Bass Tabs
Sleepless Bass Tabs
Carrion Tabs
Cthulhu Dawn 4 Tabs
Gilded Cunt 3 Tabs
I Am The Thorn 1 Tabs
Nymphetamine 10 Tabs
The Forest Whispers My Name Tabs


Song lyrics



↑ Back to top | Tablatures and chords are parodies/interpretations of the original songs. You may use it for private study, scholarship, research or language learning purposes only
© 2014 AZChords.com Contact us | Privacy policy | DMCA | Add/correct tabs | Request tabs | Top 50 tabs