» » »

Scorched Earth Erotica Tabs (ver.1)

Artists:  A B C D E F G H I J K L M N O P Q R S T U V W X Y Z # 

Scorched Earth Erotica Tabs (ver.1)

Cradle Of Filth
Rating:
0/5 (0 votes)

Hard to play? Try these video lessons and learn fast.
                Key: / or \ slide up or down 
H hammer on
P pull off
^ bend
T tremolo pick
A artificial harmonic
N natural harmonic
* trill
~ Vibrato
P palm pute

This is the final song on Cradle Of Filth's album Bitter Suites To Succubi.
As you all know, cradle of filth have two guitarists, Gian Pyres and Paul 
Allander, and a bassist (the newest addition to cradle of filth might I add)
David Pybus, former anathema. I'm going to tab both guitars for this 
song, and maybe i'll do the bass in a few weeks. When the tablature space
is blankm that means that the guitar isn't doing anything at the time. 
But enought chit-chat..... lets do this....

Tune both guitars one step to D 
Figure 1, guitar 1 
|----------------------------------------------------------------------------
|----------------------------------------------------------------------------
|----------------------------------------------------------------------------
|----------------------------------------------------------------------------
|/8--7~~~---let ring--------------------------------------------------
|----------------------------------------------------------------------------

Figure 1, guitar 2
|----------------------------------------------------------------------------
|----------------------------------------------------------------------------
|----------------------------------------------------------------------------
|----------------------------------------------------------------------------
|----------------------------------------------------------------------------
|----------------------------------------------------------------------------
___________________________________________________
Paul plays this part, but for some reason gian is doing it in the video.....
odd isn't it?
Figure 2, Guitar 1
|----------------------------------------------------------------------------
|----------------------------------------------------------------------------
|----------------------------------------------------------------------------
|----------------------------------------------------------------------------
|----------------------------------------------------------------------------
|----------------------------------------------------------------------------

Figure 2, Guitar 2
|----------------------------------------------------------------------------
|----------------------------------------------------------------------------
|---------4--5--4-------7--5--4--5-------4--5----------------------------
|5--7----2--3--2---7---5--3--2--3-------2--3----------------------------
|3--5---------------5--------------------------------------------------------
|------------------------------------------------------------------------------
___________________________________________________
This is the part where the drums kick in and dani goes EW EW EW EW!
it's easy like most of the parts in this song
Figure 3, Guitar 1
|----------------------------------------------------------------------------
|----------------------------------------------------------------------------
|---------4--5--4-------7--5--4--5-------4--5----------------------------
|5--7----2--3--2---7---5--3--2--3-------2--3----------------------------
|3--5---------------5--------------------------------------------------------
|------------------------------------------------------------------------------

Figure 3, Guitar 2
|----------------------------------------------------------------------------
|----------------------------------------------------------------------------
|---------4--5--4-------7--5--4--5-------4--5----------------------------
|5--7----2--3--2---7---5--3--2--3-------2--3----------------------------
|3--5---------------5--------------------------------------------------------
|------------------------------------------------------------------------------
_____________________________________________________
This is the chorus. The part where dani sings "Once the forest spired! 
nurtured in nature's heart..... etc." listen to the song, becaure im not
sure about this part.
Figure 4, guitar 1
|----------------------------------------------------------------------------------------------------------
|----------------------------------------------------------------------------------------------------------
|----------------------------------------------------------------------------------------------------------
|9-10--9-------------------------------------9-10--9----------------------------------------------------
|7--8--7------------------------7-8-7-------7--8--7--------------8p7h8-7p6h7-6p5h6-5p4h5--
|----------0-0-0-0----5-6-5-----------------------------0-0-0-0---------------------------------------
              ppppp    pppp   pppp                      ppppp

Figure 4, guitar 2
|----------------------------------------------------------------------------------------------------------
|----------------------------------------------------------------------------------------------------------
|----------------------------------------------------------------------------------------------------------
|9-10--9-------------------------------------9-10--9----------------------------------------------------
|7--8--7------------------------7-8-7-------7--8--7--------------8p7h8-7p6h7-6p5h6-5p4h5--
|----------0-0-0-0----5-6-5-----------------------------0-0-0-0---------------------------------------
              ppppp    pppp   pppp                      ppppp
______________________________________________________________
Okay for these next parts just repeat figures 3 and 4. But for this part, i'll
only tab what i've figured out so far, god damn paul plays some weird off
beat that I cant quite figure out. I know what I have is correct, so just try 
to figure out the rest.

Figure 5, guitar 1 part b palm mute all
|-----------------------------------------------------------------------------------------------------
|-----------------------------------------------------------------------------------------------------
|-----------------------------------------------------------------------------------------------------
|9--9--9--9--9--9--9--9--9--9--9--9--9--9-----8--8--8--8--8--8--8--8--8--8--8--8--8--8--
|7--7--7--7--7--7--7--7--7--7--7--7--7--7-----6--6--6--6--6--6--6--6--6--6--6--6--6--6--
|-----------------------------------------------------------------------------------------------------

Figure 5, guitar 1 part b palm mute all
|-----------------------------------------------------------------------------------------------------
|-----------------------------------------------------------------------------------------------------
|9--9--9--9--9--9--9--9--9--9--9--9--9--9----10-10-10-1010-101010-10-10-10-1010-10-
|7--7--7--7--7--7--7--7--7--7--7--7--7--7-----8--8--8--8--8--8--8--8--8--8--8--8--8--8--
|-----------------------------------------------------------------------------------------------------
|-----------------------------------------------------------------------------------------------------

Figure 5, guitar 2
|------------------------------------------------------------------------------------------------------
|------------------------------------------------------------------------------------------------------
|------------------------------------------------------------------------------------------------------
|------------14----------------------14------------------------13----------------------13-----------
|12-14-15-----15-14---12-14-15-----15-14-----11-13-14-----14-13---11-13-14-----14-13---
|------------------------------------------------------------------------------------------------------

|---------------------------------------------------------------------------------------------------
|---------------------------------------------------------------------------------------------------
|-----------13----------------------13------------------------14----------------------14---------
|11-13-14----14-13---11-13-14-----14-13-----12-14-15-----15-14---12-14-15-----15-14-
|---------------------------------------------------------------------------------------------------
|---------------------------------------------------------------------------------------------------
sorry..... i couldn't figure out the rest...... :-)
_______________________________________________________________
Now comes the slow melodic part, it's cake! easy to play!!! I chose to finger
pick it, but you can do what you want. 

Figure 6, guitar 1
|---------------------------------------------------------------------------------------------------------
|---------------------------------------------------------------------------------------------------------
|-----11------11------11------11------9------9-----9-----9------7-----7-------6-----6-----4-----4-
|--11------11------11------11-------9------9-----9-----9------7-----7-------6-----6-----4-----4---
|9-------9-------9-------9--------7------7------7-----7------5-----5------4------4-----2-----2-----
|---------------------------------------------------------------------------------------------------------
 
Figure 6, Guitar 2
|---------------------------------------------------------------------------------------------------------
|---------------------------------------------------------------------------------------------------------
|-----11------11------11------11------9------9-----9-----9------7-----7-------6-----6-----4-----4-
|--11------11------11------11-------9------9-----9-----9------7-----7-------6-----6-----4-----4---
|9-------9-------9-------9--------7------7------7-----7------5-----5------4------4-----2-----2-----
|---------------------------------------------------------------------------------------------------------
 Just play that a few times then play it in palm muted power chords when 
dani starts to sing. It's as simple as that.

If you have any cradle of filth requests, from any album, just e-mail me at
            
Hard to play? Try these video lessons and learn fast. | Correct




comments powered by Disqus
↑ Back to top | Tablatures and chords are parodies/interpretations of the original songs. You may use it for private study, scholarship, research or language learning purposes only