» » »

Scorched Earth Erotica Tabs (ver.2)

Artists:  A B C D E F G H I J K L M N O P Q R S T U V W X Y Z # 

Scorched Earth Erotica Tabs (ver.2)

Cradle Of Filth
Rating:
0/5 (0 votes)

Hard to play? Try these video lessons and learn fast.
                CRADLE OF FILTH
SCORCHED EARTH EROTICA
(ANOTHER CLASSIC BY THE FILTHY MUTT`S)
I THINK ITS ABOUT THERE IF NOT


TUNING, DROP DOWN TO D G C F A D

EXPERT ****
HARD   ***
AVERAGE**
EASY   *

SCORCHED EARTH***



INTRO GUITAR 1
        
e :-------
B :-------
G :-------
D :1/5-4~-
A :-------
E :-------

RIFF 1

GUITAR 2 

       
e :-----------------------------------
B :-----------------------------------
G :-----------------------------------
D :-----------------------------------
A :9-7-9-10-9-7-12-11-10-9-10-9-10----
E :7-7-7-7--7-7-7--7--7--7-8--7-8-----ALL SOFTLY MUTED


RIFF 2     

GUITAR1/GUITAR2
 
   
     
e :------------------------
B :------------------------
G :------------------------
D :------------------------
A :4-2-4-5-4-2-7-5-4-5-4-5-
E :2-2-2-2-2-2-2-2-2-3-2-3-ALL SOFTLY MUTED

BACK TO RIFF 1


FAST RIFF "CH"

SPEED PICK ALL E.
 
SPEED PICK AND MUTE ALL OPEN AND TWIDDLY BITS

e :----------------------------------------------
B :----------------------------------------------
G :----------------------------------------------
D :9---10---7-------------------------9---10---8-
A :7---8----9-----------3-4-3---3-4-3-7---8----6-
E :-0-0--0-0-0-0-0-0-3-4-----3-4-------0-0--0-0--
  

BRIDGE-FAST RIFF "CH" CON`T

DO NOT MUTE THIS BIT
  
e :--------------------------------
B :--------------------------------
G :--------------------------------
D :--------------------------------
A :7H8P7H8-6H7P6H7-5H6P5H6-4H5P4H5-
E :--------------------------------


BRIDGE CON`T

e :---------------------------------------------------
B :---------------------------------------------------
G :---------------------------------------------------
D :9---10---7-------------------------------6-5-4-3---
A :7---8----9-----------3-4-3---3-4-3-5-4-3-4-3-2-1-3-
E :-0-0--0-0-0-0-0-0-3-4-----3-4------3-2-1---------1-


BACK TO RIFF 1



RIFF 2


FAST RIFF "CH"


BRIDGE

GUITAR 1???

GUITAR 2

SUSTAIN EACH NOTE    
e :-----------------
B :-----------------
G :-----------------
D :-----------------
A :9~8~3~2~9~8~3~2~-
E :7~6~1~0~7~6~1~0~-

 
GUITAR 2

BRIDGE RIFF 2 

(HALF TIME FEEL)

e :------------------------------------------------------------------------
B :------------------------------------------------------------------------
G :------------------------------------------------------------------------
D :-----------------------------------------10-10-10-10-9-9----------------
A :--------9-9-9-9-8-8--------------8-8-8-8----------------10-10-7-7-10-10-
E :7-7-7-7--------------9-9-6-6-9-9----------------------------------------                                                        



 BRIGE 2 (EXIT RIFF)
   
e :-----------------------------------------------
B :-----------------------------------------------
G :-----------------------------------------------
D :-----------------------------------------10-10-PICK SLIDE FROM PICK UP
A :--------9-9-9-9-8-8--------------8-8-8-8-------
E :7-7-7-7--------------9-9-6-6-9-9---------------



RIFF 1
 END ON RIFF 1

e :-------------------
B :-------------------
G :-------------------
D :------6-5-4-3------
A :5-4-3-4-3-2-1-3-2~-
E :3-2-1---------1-0~-




OUTRO

"CLEAN"  GUITAR 1

PART 1
    
e :----------------------------------------------------------------
B :--5---5---5---5---3---3---3---3---------------------------------
G :-4---4---4---4---4---4---4---4----2---2---2---2---2---2---2---2-
D :2---2---2---2---2---2---2---2----2---2---2---2---2---2---2---2--
A :--------------------------------3---3---2---2---0---0---0---0---
E :----------------------------------------------------------------



GUITAR 2


       
e :---
B :---
G :---
D :---
A :2~-
E :0~-


"CLEAN" GUITAR 1
 
PART 2

e :---------------------------------------------------------------
B :--5---5---5---5---3---3---3---3--------------------------------
G :-4---4---4---4---4---4---4---4----2---2---2---2---2---2--------
D :2---2---2---2---2---2---2---2----2---2---2---2---2---2---------
A :--------------------------------3---3---2---2---0---0----------
E :--------------------------------------------------------3---2~-




GUITAR 2


e :-----------------|---------
B :-----------------|---------
G :-----------------|---------
D :--5-5-5-4-4-4----|---------
A :2~3-3-3-2-2-2-7-7|7-5-3-2~-
E :0~------------5-5|5-3-1-0~-


"CLEAN" GUITAR 1
PART 1

GUITAR 2


e :---
B :---
G :---
D :---
A :2~-
E :0~-


GUITARS 1 AND 2

ALL OPEN MUTED

(ALL BAR CHORDS HALF TIME FEEL)

       
e :-----------------------------
B :-----------------------------
G :-----------------------------
D :-----------------5-4---------
A :-----------------3-2-7-7-7-7-
E :0000000000000000-----5-5-5-5-



GUITARS 1 AND 2

ALL OPEN MUTED

(ALL BAR CHORDS HALF TIME FEEL)

e :-----------------------------
B :-----------------------------
G :-----------------------------
D :-----------------5-4---------
A :-----------------3-2-7-5-3-2-
E :0000000000000000-----5-3-1-0-






GUITARS 1 AND 2

ALL GUITARS SPEED PICKED 
(WRITTEN IN HALF TIME FEEL)  
e :------------------------------
B :------------------------------
G :------------------------------
D :---------------------11-12-13-
A :7-7-7-7-6-7-9-10-10-9---------
E :------------------------------




GUITAR 1"CLEAN" TO EXIT
            
Hard to play? Try these video lessons and learn fast. | Correct




comments powered by Disqus
↑ Back to top | Tablatures and chords are parodies/interpretations of the original songs. You may use it for private study, scholarship, research or language learning purposes only