>
 >
Lord Abortion 2

Lord Abortion 2 Guitar Tabs

Cradle Of Filth - Lord Abortion 2 chords, tabs, tablatures, lyrics

Guitar lessons | Add/correct | Request | Top 50 tabs Artists:  A B C D E F G H I J K L M N O P Q R S T U V W X Y Z 0-9

Lord Abortion 2 Guitar Tabs – Cradle Of Filth

CD, Sheet music, Poster

Do you like Lord Abortion 2? Share with your friends now
Bass TabsBass Tabs v2Bass Tabs v3TabsTabs v2Tabs v3
Lord Abortion By Cradle of Filth


|-----------------------------------------------------|
|-----------------------------------------------------|
|--------------------------------------------3333-----|
|-2222222222222222-5555555555555555------2222----2222-|
|-0000000000000000-3333333333333333--1111-------------|
|-----------------------------------------------------|
  ................ ................  slight P.M.-----|

|------------------------------------|
|------------------------------------|
|------------------------------------|
|-2222222222222222-66666666-55555555-|
|-0000000000000000-44444444-33333333-|
|------------------------------------|
  ................ ........ ........

  X=rest
|-----------------------------------------------------|
|-----------------------------------------------------|
|--------------------------------------------3333-----|
|-XXXX222222222222-5555555555555555------2222----2222-|
|-XXXX000000000000-3333333333333333--1111-------------|
|-----------------------------------------------------|
  ................ ................  slight P.M.-----|

                            End Riff1
|------------------------------------|
|------------------------------------|
|------------------------------------|
|-2222222222222222-66666666-55555555-|
|-0000000000000000-44444444-33333333-|
|------------------------------------|
  



  Riff 2  (2x)
|-----------------------------------------------------| 
|-----------------------------------------------------|  
|-----------------------------------------------------|  
|-*-------7~---------7h8-7----------7~----------------|  
|-0-0-0-0----0-0-0-0---------------------------8p7-8--|
|---------------------------8-8-8-8----6-6-6-6--------|
  . . . .    . . . .        . . . .    . . . .

                                            End Riff 2
|------------------------------------------------------|
|------------------------------------------------------|
|------------------------------------------------------|
|---------7~---------7h10-7----------6~---------2------|
|-0-0-0-0----0-0-0-0---------4-4-4-4----3-3-3-3---3-2--|
|------------------------------------------------------|
  . . . .    . . . .         . . . .    . . . .




  Riff 3a  (2x)
|-------------------------------------------------|
|-------------------------------------------------|
|----3------3------3-4-3-----3------3-------3-4-3-|
|----3------3------3-4-3-----3------3-------3-4-3-|
|----1------1------1-2-1-----1------1-------1-2-1-|
|-000----000----000-------000----000----000-------|
  ...    ...    ...       ...    ...    ...


                                    ________________________________
  Riff 3b                           1.                             |
|---------------------------------|---------------------------------|
|---------------------------------|---------------------------------|
|-----3-------3-------3---4---3---|-----3-------3-------3---4---3---|
|-----3-------3-------3---4---3---|-----3-------3-------3---4---3---|
|-----1-------1-------1---2---1---|-----1-------1-------1---2---1---|
|-0-0---0-0-0---0-0-0---0---0---0-|-0-0---0-0-0---0-0-0---0---0---0-|
  . .   . . .   . . .   .   .   .   . .   . . .   . . .   .   .   .
 __________________________
 2.                       |
|--------------------------|
|--------------------------|
|-----3-----3-----3--4--3--| This sequence should be
|--5--3--2--3--2--3--4--3--| played as staccato notes
|--5--1--2--1--2--1--2--1--|
|--3-----0-----0-----------|




  Riff 4            *here long fingers are desirable
|-----------------------------------------------|----------------|
|-----------------------------------------------|----------------|
|-------------------*---------------------------|-----3---4---3--|
|-9-----10----11----12----10----12----13----9---|-2---3---4---3--|
|-7-----7-----7-----7-----8-----10----11----7---|-2---1---2---1--|
|-----------------------------------------------|-0--------------|
 trem.pick-----------------------------------|    .   .   .   .


  Riff 4
|-----------------------------------------------|
|-----------------------------------------------|
|-----------------------------------------------|
|-9-----10----11----12----10----12----13----9---|
|-7-----7-----7-----7-----8-----10----11----7---|
|-----------------------------------------------|
 trem.pick-----------------------------------|


                                    ________________________________
  Riff 3b                           1.                             |
|---------------------------------|---------------------------------|
|---------------------------------|---------------------------------|
|-----3-------3-------3---4---3---|-----3-------3-------3---4---3---|
|-----3-------3-------3---4---3---|-----3-------3-------3---4---3---|
|-----1-------1-------1---2---1---|-----1-------1-------1---2---1---|
|-0-0---0-0-0---0-0-0---0---0---0-|-0-0---0-0-0---0-0-0---0---0---0-|
  . .   . . .   . . .   .   .   .   . .   . . .   . . .   .   .   .
 __________________________
 2.                       |
|--------------------------|
|--------------------------|
|-----3-----3-----3--4--3--|
|--5--3--2--3--2--3--4--3--|
|--5--1--2--1--2--1--2--1--|
|--3-----0-----0-----------|





  Riff 2  (2x)
|-----------------------------------------------------|
|-----------------------------------------------------|
|-----------------------------------------------------|
|---------7~---------7h8-7----------7~----------------|
|-0-0-0-0----0-0-0-0---------------------------8p7-8--|
|---------------------------8-8-8-8----6-6-6-6--------|
  . . . .    . . . .        . . . .    . . . .

                                            End Riff 2
|------------------------------------------------------|
|------------------------------------------------------|
|------------------------------------------------------|
|---------7~---------7h10-7----------6~---------2------|
|-0-0-0-0----0-0-0-0---------4-4-4-4----3-3-3-3---3-2--|
|------------------------------------------------------|
  . . . .    . . . .         . . . .    . . . .



  Riff 4
|-----------------------------------------------|
|-----------------------------------------------|
|-----------------------------------------------|
|-9-----10----11----12----10----12----13----9---|
|-7-----7-----7-----7-----8-----10----11----7---|
|-----------------------------------------------|
 trem.pick-----------------------------------|




  Riff 5  (2x)
|-------------|------------|------------------|------------------|
|-------------|------------|------------------|------------------|
|-------------|------------|------------------|------------------|
|-9--99999999-|-9--99997-9-|-10--101010109-10-|-12--1212121210-7-|
|-7--77777777-|-7--77775-7-|-8---8-8-8-8-7-8--|-10--101010108--5-|
|-------------|------------|------------------|------------------|

                                                                   End Riff 5
|----------------------|------------------------------------------------------|
|----------------------|------------------------------------------------------|
|----------------------|-77777777 1010101010101010-99999999-------------------|
|-9--99997-9-----------|------------------------------------1010101010101010--|
|-7--77775-7--9----10--|------------------------------------------------------|
|-------------7----8---|------------------------------------------------------|




  Riff 6 (2x)
|--------------|-----------|--------------|---------------|------------|------|
|--------------|-----------|--------------|---------------|------------|------|
|--------------|-----------|--------------|---------------|------------|------|
|-7---77777777-|-7-77775-7-|-8-8888888888-|-5--5555555555-|-7--77776-7-|-2--3-|
|-7---77777777-|-7-77775-7-|-8-8888888888-|-5--5555555555-|-7--77776-7-|-2--3-|
|-5---55555555-|-5-55553-5-|-6-6666666666-|-3--3333333333-|-5--55554-5-|-0--1-|

                 End Riff 6
|------------|-------------|
|------------|-------------|
|------------|-------------|
|-8-88888888-|-6--66666666-|
|-8-88888888-|-6--66666666-|
|-6-66666666-|-4--44444444-|




                            ____________________  ____________________________
  Riff 7                   
|--------------------------|--------------------|-----------------------------|
|--------------------------|--------------------|-----------------------------|
|--------------------------|--------------------|-----------------------------|
|--------3------5------5/6-|-(Drums&Vocals---6\-|--------333333-222222--------|
|--------3------5------5/6-|-(lalalala))-----6\-|-111111---------------444444-|
|-000000-1-0000-3-0000-3/4-|-----------------4\-|-----------------------------|
  ......   ....   ....




  Riff 8  (2x)
|-----------------------------------------------------------------------|
|-----------------------------------------------------------------------|
|---------4----3----5-------4----5----9-------4----3----5-------4----3--|
|-2-------4----3----5-------4----5----9-------4----3----5-------4----3--|
|-2-------2----1----3-------2----3----7-------2----1----3-------2----1--|
|-0-----------------3-------2----3----0-----------------3-------2----1--|





  Riff 9  (2x)
|--------------------------|------------------------------|
|--------------------------|------------------------------|
|--------------------------|------------------------------|
|--------3------5------5/6-|--------666666-555555---------|
|--------3------5------5/6-|-444444---------------777777--|
|-000000-1-0000-3-0000-3/4-|------------------------------|
  ......   ....   ....
                                               End Riff 9
|--------------------------|------------------------------|
|--------------------------|------------------------------|
|--------------------------|------------------------------|
|--------3------5------5/6-|--------333333-222222---------|
|--------3------5------5/6-|-111111---------------444444--|
|-000000-1-0000-3-0000-3/4-|------------------------------|
  ......   ....   ....



  Riff 10 (2x)
|-----------------------------------------------------|
|-----------------------------------------------------|
|-----------------------------------------------------|
|---------7~---------7h8-7----------7~----------------|
|-000000-------0-------------------------------8p7-8--|
|---------------------------888888-------6------------|
  ......                    ......
                                          End Riff 10
|-----------------------------------------------------|
|-----------------------------------------------------|
|-----------------------------------------------------|
|---------7~--------7h10-7----------6~---------2------|
|-000000-------0------------444444-------3-------3-2--|
|-----------------------------------------------------|
  ......                    ......




  Riff 2  (2x)
|-----------------------------------------------------|
|-----------------------------------------------------|
|-----------------------------------------------------|
|---------7~---------7h8-7----------7~----------------|
|-0-0-0-0----0-0-0-0---------------------------8p7-8--|
|---------------------------8-8-8-8----6-6-6-6--------|
  . . . .    . . . .        . . . .    . . . .

                                            End Riff 2
|------------------------------------------------------|
|------------------------------------------------------|
|------------------------------------------------------|
|---------7~---------7h10-7----------6~---------2------|
|-0-0-0-0----0-0-0-0---------4-4-4-4----3-3-3-3---3-2--|
|------------------------------------------------------|
  . . . .    . . . .         . . . .    . . . .



  Riff 3a  (2x)
|-------------------------------------------------|
|-------------------------------------------------|
|----3------3------3-4-3-----3------3-------3-4-3-|
|----3------3------3-4-3-----3------3-------3-4-3-|
|----1------1------1-2-1-----1------1-------1-2-1-|
|-000----000----000-------000----000----000-------|
  ...    ...    ...       ...    ...    ...


                                    ________________________________
  
|---------------------------------|---------------------------------|
|---------------------------------|---------------------------------|
|-----3-------3-------3---4---3---|-----3-------3-------3---4---3---|
|-----3-------3-------3---4---3---|-----3-------3-------3---4---3---|
|-----1-------1-------1---2---1---|-----1-------1-------1---2---1---|
|-0-0---0-0-0---0-0-0---0---0---0-|-0-0---0-0-0---0-0-0---0---0---0-|
  . .   . . .   . . .   .   .   .   . .   . . .   . . .   .   .   .
 __________________________
 2.                       |
|--------------------------|
|--------------------------|
|-----3-----3-----3--4--3--|
|--5--3--2--3--2--3--4--3--|
|--5--1--2--1--2--1--2--1--|
|--3-----0-----0-----------|


|-------------------------------------|------------|------------|------------|-----|
|-------------------------------------|------------|------------|------------|-----|
|-------------------------------------|------------|------------|------------|-----|
|-9---10---11---12---10---12---13---9-|-7--8--3--8-|-5--8--3--8-|-5--8--3--8-|--2--|
|-7---7----7----7----8----10---11---7-|-7--8--3--8-|-5--8--3--8-|-5--8--3--8-|--2--|
|-------------------------------------|-5--6--1--6-|-3--6--1--6-|-3--6--1--6-|--0--|





Comments


Popular Cradle Of Filth tabs & chords
The Black Godess Rises Bass Tabs
What Dies Within Bass Tabs
A Crescendo Of Passion Tabs
Babylon Ad Tabs
Beneath The Howling Stars Tabs
Coffin Fodder 4 Tabs
Fire Still Burns Tabs
Gilded Cunt Tabs
Summer Dying Fast Tabs
The Nun With The Astral Habit Tabs


Song lyrics



↑ Back to top | Tablatures and chords are parodies/interpretations of the original songs. You may use it for private study, scholarship, research or language learning purposes only
© 2014 AZChords.com Contact us | Privacy policy | DMCA | Add/correct tabs | Request tabs | Top 50 tabs