» » »

Lord Abortion Tabs (ver.1)

Artists:  A B C D E F G H I J K L M N O P Q R S T U V W X Y Z # 

Lord Abortion Tabs (ver.1)

Cradle Of Filth
Rating:
0/5 (0 votes)

Tabs too difficult? Try these video lessons and learn fast.
                Tuning (D-G-C-F-A-D)

Intro
4|---------------------------8-----------------------------|
5|--7-7-7-7-7-10101010----7----7-7-7-7-7-10101010--8-------|
6|--5-5-5-5-5--8-8-8-8--6--------5-5-5-5--8-8-8-8--6-------|

Verse (Dub me lord abortion ...)
4|--7--7h8p7---7----------|
5|----------------8p7h8---|
6|------------------------|

Hardcore Part
3|---3---3---3-4-3-|
4|-2-3-2-3-2-3-4-3-|
5|-2-1-2-1-2-1-2-1-|
6|-0---0---0-------|

Interlude
3|-----------------------------------------------------|
4|--9--9-9-9-9--9-910-10-1010-12-12-12--9--9-9-9--4-5--|
5|--7--7-7-7-7--7-7-8--8--8-8-10-10-10--7--7-7-7--2-3--|
6|-----------------------------------------------------|

Bit after humanity slack (Quick wrist)
5|-7777-7-8-7-7-710-777-78--|
6|-5555-5-6-5-5-5-8-555-56--|
pm_-------------------------|
            
Tabs too difficult? Try these video lessons and learn fast.


comments powered by Disqus
↑ Back to top | Tablatures and chords are parodies/interpretations of the original songs. You may use it for private study, scholarship, research or language learning purposes only