» » »

Cradle Of Filth, Lord Abortion Bass tabs (ver.1)

Artists:  A B C D E F G H I J K L M N O P Q R S T U V W X Y Z # 

Lord Abortion Bass tabs (ver.1)

Cradle Of Filth Tabs
 Rating:
4/5 (4 votes)
Lord Abortion lessons Tabs too difficult? Try these video lessons and learn fast
                -------------
By Cradle of filth
-- Midian




Notation:
...=tremolo picking
~ = vibrato with finger
h = hammer-on
X = ghost note
/ = slide up
\ = slide down


Note:
5-string and 4-string versions Tune to D (DGCF or ADGCF)

___________________________________________________

Keyboard intro


Riff 1 Twice


|----------------------------------------------------------------
|-----------------8-----------------------------------------8----
|---------------7---7-------------------------------------7---7--
|-5...--8...-6--------5...--8...--6..--X---5...--8...--6---------



-------------------------|
-------------------------|
-------------------------|
-5...----8...----6...----|


Riff 2 Twice


|----------------------------------------------------|
|----------------------------------------------------|
|-0....----------------------0......-----------------|
|-------8.....----6.....--------------8.....--6....--|


Riff 3 Eight times


|-----------------------|
|-----------------------|
|-----------------------|
|-0-0-6-0-0-6-0-0-6-7-6-|


Riff 4 Once

(4-string)
|--------------------------------------------------|
|--------------------------------------------------|
|--------------------------8...-10...-11...-7...---|
|-7....-8...--9...-10...---------------------------|

(5-string)                                             
|--------------------------------------------------|
|--------------------------------------------------|
|--------------------------------------------------|
|-----------------------1...-3...-4...-0...--------|
|-0....-1...-2...-3...-----------------------------|


fill that goes along with riff 4

|---------|
|---------|
|---------|
|-6-7-6-7-|



Riff 4 Once

Riff 3 Four times



Riff 2 Twice

Riff 4 Once

Riff 5 Twice

|------------------------------|------------------------|
|------------------------------|------------------------|
|-7---5/7/8---10--8\5/7---4--5-|-0-----8-------7--------|
|------------------------------|-------------------8----|


Riff 6 Twice

|------------------------------------|
|------------------------------------|
|------------------------------------|
|-5-3/5\6--3--3/5/6-5-0--2--5-6-4----|


Riff 7 Two times

|-------------------------------------------------------------
|----------------------------6-5------------------------------
|-------------------------4-------7---------------------------
|-0-0-0-3-0-0-5-0-0-3-5-6-------------0-0-0-3-0-0-5-0-0-3-5-6-


------------------|
------------------|
-----8-7----------|
-6--------9-------|



Riff 8 Four times

|----------------------------------|
|----------------------------------|
|-7...--6...--5...--7...-6...-8...-|
|----------------------------------|



Riff 7 Twice


Break for guitar and bass 

Riff 2 Four times

Riff 3 Four times

Riff 4 Once



End 
|-------------------------------|
|-------------------------------|
|-----------------------------7-|
|-0-6-0-6-0-6-0-6-0-6-0-6-0-6-0-|
            
Submit corrections

comments powered by Disqus
↑ Back to top | Cradle Of Filth Bass for Lord Abortion. Lyrics for acoustic guitar and electric guitar. Tablatures and chords are parodies/interpretations of the original songs. You may use it for private study, scholarship, research or language learning purposes only