» » »

Cradle Of Filth, Her Ghost In The Fog Tabs (ver.2)

Artists:  A B C D E F G H I J K L M N O P Q R S T U V W X Y Z # 

Her Ghost In The Fog Tabs (ver.2)

Cradle Of Filth Tabs
 Rating:
4/5 (4 votes)
Her Ghost In The Fog lessons Tabs too difficult? Try these video lessons and learn fast
                Cradle of Filth
Her Ghost in the Fog


DROPPED D TUNING

(not written in rhythms or bars)

1)   PIANO INTRO (no guitar)

2) RIFF 1




D |-----O--------4----------3---------2-------------------------
A |-----O--------4----------3---------2--------------------------
D |-----O--------4----------3---------2----------------------------

SOLO IN RIFF 1

E |------------------------------------------------------------------------
B |----------2--1-----------2--1--------------------------------------
G |-----4-----------1--2------------2--------2-2-2-2-2-2-2-2-------
D |--------------------------------------------------------------------------

3) RIFF 2


D |--0------2-----3-----2----0------------------------------------
A |--0------0-----0-----0----0----------------------------------------
D |--0------2-----3-----2----0------------------------------------------

RIFF 2 SOLO

G |--------------------------(2)-(0)-(2)----(2)--(2)-------(2)*----------------
D |---3---5---3---2---0----3---2---3---0--3----3---------3----0------
A |----------------------------------------------3------0-------------------
E |------------------------------------------------------------------------


* (  ) = PLAY LATS TIME ONLY


4)  STRING AND CHORAL 'AHH' BACKGROUND (no guitar)

5)  

RIFF 3

G |-----------------------------------------------------------------------
D |--0-----0------1---3---1---0---1---0---------------------------------
A |--0-----0-----------------------------------3/2-2-2-2------------------
E  |--0-----0---------------------------------------------------------------


6)

RIFF 2 AND SOLO


7)

RIFF 4

G |--------------------------------------------------------------------------------------------
D |---0-2-3-2--0-2-3-2------2-3-2----2-3-2----2-3-2----2-3-2----2-3-2----2-3-2---
A |-------------------------0----------0---------1---------1---------3---------3------------
E |---------------------------------------------------------------------------------------------


8)

RIFF 5 

G |------------------------------------------------------------------------------------------
D |---6--5-5--3--5-5--6---5-5--8/9---6----6--5-5--3--5-5--6--1----------------------
A |---6--5-5--3--5-5--6---5-5--8/9---6----6--5-5--3--5-5--6--1--------------------
E |----6--5-5--3--5-5--6---5-5--8/9---6----6--5-5--3--5-5--6--1------------------------

9)

RIFF 6

(nearly the same as riff 1 except the first chord is different)



G |---------------------------------------------------
D |------10-----4------3-----2----------------------
A |------10-----4------3-----2----------------------
E |-------10-----4------3-----2---------------------


10)

RIFF 1


11) OUTRO (no guitar)
            
Submit corrections

comments powered by Disqus
↑ Back to top | Cradle Of Filth Tabs for Her Ghost In The Fog. Lyrics for acoustic guitar and electric guitar. Tablatures and chords are parodies/interpretations of the original songs. You may use it for private study, scholarship, research or language learning purposes only