» » »

Cradle Of Filth, Her Ghost In The Fog Tabs (ver.3)

Artists:  A B C D E F G H I J K L M N O P Q R S T U V W X Y Z # 

Her Ghost In The Fog Tabs (ver.3)

Cradle Of Filth Tabs
 Rating:
4/5 (4 votes)
Her Ghost In The Fog lessons Tabs too difficult? Try these video lessons and learn fast
1
                Tuning : (Low To High : D G C F A D)

|----------------------------------------------------------------------
|----------------------------------------------------------------------
|----------------------------------------------------------------------
|-x//2222222222222222226666666666666666655555555555555555444444444444444
|-x//2222222222222222226666666666666666655555555555555555444444444444444
|----0000000000000000004444444444444444433333333333333333222222222222222

|----------------------------------------------------------------|
|----------------------------------------------------------------|
|-----------------87---87----------------------------------------|
|7777777777777--6---89---9--777777777777777777777--44444444444---|
|5555555555555--------------555555555555555555555----------------|
|----------------------------------------------------------------|



Gtr.1
|-------------------------------------------------||
|-------------------------------------------------||
|-------------------------------------------------||
|-9-9999-9-7-7777-7--5-7-5-4---5-4-5---5-0--5---5-||
|-7-7777-7-5-5555-5----------7-------7------------||
|---------------------------------------------7---||
    pm..     ....

Gtr.2 (2nd time only)
|-------------------------------------------------||
|-------------------------------------------------||
|------------------------------4---4---4---4---4--||
|--------------------------------7---5---4--------||
|--------------------------------------------2----||
|-------------------------------------------------||

this is the keyboard part played w/the guitar (Fingerpicked)

  Gtr.1       x6
||---12---10--||---9---9---10---10--||
||------------||--------------------||
||-9----9----o||-9---9---9----9-----||
||-----------o||--------------------||
||------------||--------------------||
||------------||--------------------||

Gtr.2       x4                    x3
||---12---10--||---9---9---10---10--||
||------------||--------------------||
||-9----9----o||-9---9---9----9----o||
||-----------o||-------------------o||
||------------||--------------------||
||------------||--------------------||



                                              x3
|---------------------------------------------||
|---------------------------------------------||
|---------------------------------------------||
|---------------------------------------------||
|-7777777777777777----------------------------||
|-0000000000000000-6~~-8-6-5-6-5-3-2-2~~3-----||
  pm..............

Gtr.2 (last 2 times only)
|---------------------------------------------||
|---------------------------------------------||
|------------------3~~-5-3-2-3-2--------------||
|--------------------------------5-4-4~~4~~5--||
|---------------------------------------------||
|---------------------------------------------||


Gtr.1                                                             x4
|------------------------------------------------------------------||
|------------------------------------------------------------------||
|------------------------------------------------------------------||
|-2-4-5-4-2-4-5-4---4-5-4---4-5-4---4-5-4---4-5-4---4-5-4-7-5-4-5--||
|-----------------2-------2-------3-------3-------5----------------||
|------------------------------------------------------------------||
|
|Gtr.2                                                             x4
|------------------------------------------------------------------||
|------------------------------------------------------------------||
|-2-4-5-4-2-4-5-4---4-5-4---4-5-4---4-5-4---4-5-4---4-5-4-7-5-4-5--||
|-----------------2-------2-------3-------3-------5----------------||
|------------------------------------------------------------------||
|------------------------------------------------------------------||

I cant get this part (this is just something that sounds close)
|------------------------------------------------------------------|
|------------------------------------------------------------------|
|------------------------------------------------------------------|
|-3--2222---3--2222---3--2222--------2-/7----5-7-5-4\\------1------|
|-1--0000---1--0000---1--0000------2-------------------2-----2-----|
|-------------------------------0-0------------------3---------3-0-|



Gtr.1
|-------------------------------------------------||
|-------------------------------------------------||
|-------------------------------------------------||
|-7-7777-7-5-5555-5--3-5-3-2---3-2-3---3---3---3--||
|-5-5555-5-3-3333-3----------5-------5---3--------||
|--------------------------------------------5----||

Gtr.2 plays this the 2nd time
|-------------------------------------------------||
|-------------------------------------------------||
|------------------------------2---2---2---2---2--||
|--------------------------------5---3---2--------||
|--------------------------------------------0----||
|-------------------------------------------------||



Gtr.1
|------------------------------------------------|
|------------------------------------------------|
|------------------------------------------------|
|-9-9999-9-7-7777-7--5-7-5-4---5-4-5---5-0-5---5-|
|-7-7777-7-5-5555-5----------7-------7-----------|
|--------------------------------------------7---|
   pm..     ....



Outro:

Gtr.1
|---------------------------------|
|---------------------------------|
|---------------------------------|
|-/7-\\-/5\\-4-5-5~~\\------------|
|-------------------/9-\\-/6-\\---|
|---------------------------------|

Gtr.2
|---------------------------------|
|---------------------------------|
|-/5-\\-/4\\-2-4-4~~\\------------|
|------------------------/9~~\\---|
|-------------------/6-\\---------|
|---------------------------------|
            
Submit corrections

comments powered by Disqus
↑ Back to top | Cradle Of Filth Tabs for Her Ghost In The Fog. Lyrics for acoustic guitar and electric guitar. 1 Tablatures and chords are parodies/interpretations of the original songs. You may use it for private study, scholarship, research or language learning purposes only