» » »

Her Ghost In The Fog Tabs (ver.1)

Artists:  A B C D E F G H I J K L M N O P Q R S T U V W X Y Z # 

Her Ghost In The Fog Tabs (ver.1)

Cradle Of Filth
Rating:
0/5 (0 votes)

Tabs too difficult? Try these video lessons and learn fast.
                PROPS GO TO: Hari Souris

Her Ghost in the Fog
Cradle of Filth


Standard tuning
~ slide

Riff 1
|--------------------------------------------------------------------------|------------------
|--------------------------------------------------------------------------|------------------
|--------------------------------------------------------------------------|------------------
|--------------------------------------------------------------------------|------------------
|--0--0--0--0--0--0--0--0--0--0--0--0--0--0--0--0--0--0--0--0--0--0--0--0--|--4--4--4--4--4--4
|--0--0--0--0--0--0--0--0--0--0--0--0--0--0--0--0--0--0--0--0--0--0--0--0--|--4--4--4--4--4--4
   \_3_/    \_3_/	    \_3_/    \_3_/    \_3_/    \_3_/    \_3_/    \_3_/       \_3_/    \_3_/

|--------------------------------------------------------|------------------------------------
|--------------------------------------------------------|------------------------------------
|--------------------------------------------------------|------------------------------------
|--------------------------------------------------------|------------------------------------
|--4--4--4--4--4--4--4--4--4--4--4--4--4--4--4--4--4--4--|--3--3--3--3--3--3--3--3--3--3--3--3
|--4--4--4--4--4--4--4--4--4--4--4--4--4--4--4--4--4--4--|--3--3--3--3--3--3--3--3--3--3--3--3
    \_3_/    \_3_/    \_3_/    \_3_/    \_3_/    \_3_/       \_3_/    \_3_/    \_3_/    \_3_/

|--------------------------------------|------------------------------------------------------
|--------------------------------------|------------------------------------------------------
|--------------------------------------|------------------------------------------------------
|--------------------------------------|------------------------------------------------------
|--3--3--3--3--3--3--6--6--6--6--6--6--|--2--2--2--2--2--2--2--2--2--2--2--2--2--2--2--2--2--2
|--3--3--3--3--3--3--6--6--6--6--6--6--|--2--2--2--2--2--2--2--2--2--2--2--2--2--2--2--2--2--2
    \_3_/    \_3_/    \_3_/    \_3_/       \_3_/    \_3_/    \_3_/    \_3_/    \_3_/    \_3_/

|--------------------|
|--------------------|
|--------------------|
|--------------------| play the whole thing twice...
|--2--2--2--2--2--2--|
|--2--2--2--2--2--2--|
    \_3_/    \_3_/

Riff 2
|------------------------------------|-----------------------------------|--------------------|
|------------------------------------|-----------------------------------|--------------------|
|------------------------------------|-----------------------------------|--------------------|
|------------------------------------|-----------------------------------|--------------------|
|--7----------------7----------------|--5----------------5---------------|--3--5--3--2--0----3|
|--5----5--5--5--5--5----5--5--5--5--|--3----3--3--3--3--3----3--3--3--3-|--------------------|

|-------------------------|
|-------------------------|
|-------------------------|
|-------------------------| repeat...
|--2--3--0--3-----3-----3-| 
|--------------3-----0----|

Riff 3
|------------------------------------|------------------------------------|---------------|
|------------------------------------|------------------------------------|---------------|
|------------------------------------|------------------------------------|---------------|
|------------------------------------|------------------------------------|---------------|
|------------------------------------|------------------------------------|---------------|
|-0-0-0-0--0-0-0-0--0-0-0-0--0-0-0-0-|-0-0-0-0--0-0-0-0--0-0-0-0--0-0-0-0-|--6--8-6-5-6-5-|

|------------|
|------------|
|------------|
|------------| play it three times and then...
|------------|
|--3~2----3--|

Riff 4
(a)
|----------|-----------------------|-----------------------|--------------|-----------------|
|----------|-----------------------|-----------------------|--------------|-----------------|
|----------|-----------------------|-----------------------|--------------|-----------------|
|----------|-7----------7----------|-5----------5----------|-3-5-3-2-0--3-|-2-3-0-3---3---3-|
|----------|-5--5-5-5-5-5--5-5-5-5-|-3--3-3-3-3-3--3-3-3-3-|--------------|---------3---0---|
|-3~2----3-|-----------------------|-----------------------|--------------|-----------------|

(b)
|-----------------------|-----------------------|--------------|-----------------|
|-----------------------|-----------------------|--------------|-----------------|
|-----------------------|-----------------------|------------3-|-2-3-0-3---3---3-|
|-7----------7----------|-5----------5----------|-3-5-3-2-3----|---------3---0---|
|-5--5-5-5-5-5--5-5-5-5-|-3--3-3-3-3-3--3-3-3-3-|--------------|-----------------|
|-----------------------|-----------------------|--------------|-----------------|

play Riff 4 (b) three times

Riff 5
|------------------------|------------------------|------------------------|
|------------------------|------------------------|------------------------|
|------------------------|------------------------|------------------------|
|-0022--3322--0022--3322-|---22--3322----22--3322-|---22--3322----22--3322-|
|------------------------|-00----------00---------|-11----------11---------|
|------------------------|------------------------|------------------------|

|------------------------------------|
|------------------------------------|
|------------------------------------|
|-----2-2--3-3-2-2--5-5-3-3--2-2-3-3-| play it twice
|-3-3--------------------------------|
|------------------------------------|

Riff 6
|------------------------------|---------------------------|------------------------------|
|------------------------------|---------------------------|------------------------------|
|------------------------------|---------------------------|------------------------------|
|------------------------------|---------------------------|------------------------------|
|--6--5-5--5-5-5-3--5-5--5-5-5-|--6--5-5--5-5-5-8--9--8--9-|--6--5-5--5-5-5-3--5-5--5-5-5-|
|--6--5-5--5-5-5-3--5-5--5-5-5-|--6--5-5--5-5-5-8--9--8--9-|--6--5-5--5-5-5-3--5-5--5-5-5-|	
|------------------|
|------------------|
|------------------|
|------------------|
|--6--5-5--5-5-5-1-|
|--6--5-5--5-5-5-1-|	

Then repeat Riff 1 and Riff 3

Riff 7
|--------|-----------------------|-----------------------|--------------|-----------------|
|--------|-----------------------|-----------------------|--------------|-----------------|
|--------|-----------------------|-----------------------|--------------|-----------------|
|--------|-5----------5----------|-3----------3----------|-1-3-1-0----1-|-0-1---1---1---1-|
|--------|-3--3-3-3-3-3--3-3-3-3-|-1--1-1-1-1-1--1-1-1-1-|---------3----|-----3---1-------|
|-3~2--3-|-----------------------|-----------------------|--------------|-------------5---|

|--------|-----------------------|-----------------------|--------------|-----------------|
|--------|-----------------------|-----------------------|--------------|-----------------|
|--------|-----------------------|-----------------------|--------------|-----------------|
|--------|-5----------5----------|-3----------3----------|-1-3-1-0----1-|-0-1---1---1---1-|
|--------|-3--3-3-3-3-3--3-3-3-3-|-1--1-1-1-1-1--1-1-1-1-|---------3----|-----3---1-------|
|-3~2--3-|-----------------------|-----------------------|--------------|-------------3---|

Repeat twice

Riff 8
|-----------------------|-----------------------|--------------|------------------|
|-----------------------|-----------------------|--------------|------------------|
|-----------------------|-----------------------|--------------|------------------|
|-7----------7----------|-5----------5----------|-3-5-3-2-0--3-|-2-3-0-3----3---3-|
|-5--5-5-5-5-5--5-5-5-5-|-3--3-3-3-3-3--3-3-3-3-|--------------|----------3---0---|
|-----------------------|-----------------------|--------------|------------------|

|-----------------------|-----------------------|--------------|-----------------|
|-----------------------|-----------------------|--------------|-----------------|
|-----------------------|-----------------------|------------3-|-2-3-0-3---3---3-|
|-7----------7----------|-5----------5----------|-3-5-3-2-3----|---------3---0---|
|-5--5-5-5-5-5--5-5-5-5-|-3--3-3-3-3-3--3-3-3-3-|--------------|-----------------|
|-----------------------|-----------------------|--------------|-----------------|

Repeat Riff 5 and end like this:

Riff 9
|--------------|---------|
|--------------|---------|
|--------------|---------|
|-5--3--2-3-3--|-2-------|
|--------------|---4--0--|
|--------------|------0--|
            
Tabs too difficult? Try these video lessons and learn fast.




comments powered by Disqus
↑ Back to top | Tablatures and chords are parodies/interpretations of the original songs. You may use it for private study, scholarship, research or language learning purposes only