>
 >
A Gothic Romance 2

A Gothic Romance 2 Guitar Tabs

Cradle Of Filth - A Gothic Romance 2 chords, tabs, tablatures, lyrics

Guitar lessons | Add/correct | Request | Top 50 tabs Artists:  A B C D E F G H I J K L M N O P Q R S T U V W X Y Z 0-9

A Gothic Romance 2 Guitar Tabs – Cradle Of Filth

CD, Sheet music, Poster

Do you like A Gothic Romance 2? Share with your friends now
Bass TabsTabsTabs v2Tabs v3
Cradle Of Filth - Gothic Romance

Tuning is Standard D


XBL GT: ExothermicDemon

0:00-1:06
||------------------------------------------------------------------------|
||------------------------------------------------------------------------|
||------------------------------------------------------------------------|
||------------------------------------------------------------------------|
||------------------------------------------------------------------------|
||--0-0-0-0-0-Pickscrape+Handslide----------------------------------------|
    x x x x x


1:07-1:22 Figure 1
||------------------------------------------------------------------------|
||------------------------------------------------------------------------|
||------------------------------------------------------------------------|
||--9----8--------9----10-------------------------------------------------|
||--7----6---8----7----8----8---------------------------------------------|
||-----------6--------------6---------------------------------------------|


1:22-1:37 Figure 2
||------------------------------------------------------------------------|
||------------------------------------------------------------------------|
||------------------------------------------------------------------------|
||--9--9-9--9-9--9-9--9-8--8-8--8-----------9--9-9--9-9--9-9--9-10-1010---|
||--7--7-7--7-7--7-7--7-6--6-6--6-8--8-8--8-7--7-7--7-7--7-7--7-8--8-8----|
||--------------------------------6--6-6--6-------------------------------|

||------------------------------------------------------------------------|
||------------------------------------------------------------------------|
||------------------------------------------------------------------------|
||-10---------------------------------------------------------------------|
||-8-8--8-8--8------------------------------------------------------------|
||---6--6-6--6------------------------------------------------------------|


1:38-2:09 Figure 3
||------------------------------------------------------------------------|
||------------------------------------------------------------------------|
||---------------/7---/10---/14-----------------10-9-7-9--10-9------------|
||-----5h7-----------------------------------------------------7----------|
||--5------8-5---------------------8---8-7-5------------------------------|
||---------------------------------6---6-5-3------------------------------|

2nd time play this as end
||------------------------------------------------------------------------|
||------------------------------------------------------------------------|
||--10-9-7-9--10~--9~-----------------------------------------------------|
||------------------------------------------------------------------------|
||------------------------------------------------------------------------|
||------------------------------------------------------------------------|


2:10-2:35 Figure 4
||------------------------------------------------------------------------|
||------------------------------------------------------------------------|
||------------------------------------------------------------------------|
||------------------------------------------------------------------------|
||--1010101010109-9-9-10109-7-7-7-7-7-7-7-7-7-7-7-7-----------------------|
||--8-8-8-8-8-8-7-7-7-8-8-7-5-5-5-5-5-5-5-5-5-5-5-5-----------------------|

Last time play this
||------------------------------------------------------------------------|
||------------------------------------------------------------------------|
||------------------------------------------------------------------------|
||------------------------------------------------------------------------|
||--1010101010109~-10~----------------------------------------------------|
||--8-8-8-8-8-8-7~--8~----------------------------------------------------|



2:35-2:50 Figure 3

2:51-3:22 Figure 2


3:23-3:47 Figure 5 Tremelo Picking
||------------------------------------------------------------------------|
||------------------------------------------------------------------------|
||------------------------------------------------------------------------|
||----------------------------------------------------8888----------------|
||-7----888810------------------8888---------1087-5555----8888-1087-1087--|
||-55555----8---1087-1087---5555----8888-1087-----------------------------|


||------------------------------------------------------------------------|
||------------------------------------------------------------------------|
||------------------------------------------------------------------------|
||-----8888--------------------------------------------------12109-12109--|
||-5555----8888-1087----------8888-------------------8888-----------------|
||-------------------1087-5555----8888-1087-1087-5555----8888-------------|


3:48-4:19 Figure 6 Tremelo Picking
                   But 2nd time through just play the 1 note
||------------------------------------------------------------------------|
||------------------------------------------------------------------------|
||--7--8-7-5-7-5-3-5-3-0-2-3-2--------------------------------------------|
||-----------------------------7----5---8---------------------------------|
||-----------------------------5----3---6---------------------------------|
||------------------------------------------------------------------------|


4:23-4:54 Figure 7 Portrait Of The Dead Countess
||------------------------------------------------------------------------|
||------------------------------------------------------------------------|
||------------------------------------------------------------------------|
||------------------------------------------------------------------------|
||-----------------5--7--8--7h8p7-8-7-------------------------------------|
||--Pickscrape------------------------------------------------------------|


4:55-5:15 Figure 8
||------------------------------------------------------------------------|
||------------------------------------------------------------------------|
||------------------------------------------------------------------------|
||------------------------------------------------------------------------|
||--2-2-5---4/5-4/5--2-2-5----5-8/7-5--2-2-5---4/5-4/5--2-2-5/8-88-88-----|
||--0-0-3-0-2/3-2/3--0-0-3--0-3-6/5-3--0-0-3-0-2/3-2/3--0-0-3/6-66-66-----|


5:16-5:35 Figure 9 Tremelo Picking
||------------------------------------------------------------------------|
||------------------------------------------------------------------------|
||------------------------------------------------------------------------|
||--9---8-------9---12----------------------------------------------------|
||--7---6---8---7---10---8------------------------------------------------|
||----------6------------6------------------------------------------------|


5:36-6:12 Figure 10
||------------------------------------------------------------------------|
||------------------------------------------------------------------------|
||------------------------------------------------------------------------|
||------------------------------------------------------------------------|
||----5--/8-8-7-7---------5--/8-8-7-7-5-5-5-5-----------------------------|
||-5-------------------5--------------------------------------------------|

At end play this
||------------------------------------------------------------------------|
||------------------------------------------------------------------------|
||------------------------------------------------------------------------|
||------------------------------------------------------------------------|
||----5-/8-8-7-7-5-5-4-4/5------------------------------------------------|
||-5----------------------------------------------------------------------|

6:12-6:25 Bass Solo Joax

6:26-6:51 Harmony 1 ...and so on
||------------------------------------------------------------------------|
||------------------------------------------------------------------------|
||----------------------/10--9h10p9--7~-----------------------------------|
||------------------------------------------------------------------------|
||--/5--/8-7h8p7--5~--------------------/8-7h8p7--5~----------------------|
||------------------------------------------------------------------------|

6:52-7:04 Harmony 2 ...and so on
||----------------------/13--12h13p12--10~--------------------------------|
||---/6-5h6p5--5~---------------------------------------------------------|
||------------------------------------------------------------------------|
||------------------------------------------------------------------------|
||------------------------------------------------------------------------|
||------------------------------------------------------------------------|


7:04-7:16 Guitar Solo (Tremelo Picking) while Harmony 2 plays on
||---10--12-10--13-10--10-15--10-12--10-13--10-15--10-17--10-15--10-13----|
||------------------------------------------------------------------------|
||------------------------------------------------------------------------|
||------------------------------------------------------------------------|
||------------------------------------------------------------------------|
||------------------------------------------------------------------------|


7:17-7:47 Figure 6

7:48-8:07 Figure 8

8:08-8:35 Outro





Comments


Popular Cradle Of Filth tabs & chords
Tonight In Flames 2 Bass Tabs
Babalon 1 Tabs
Cemetery And Sundown 1 Tabs
Fear Of The Dark Tabs
From The Cradle To Enslave 1 Tabs
Gabrielle 1 Tabs
Hallowed Be Thy Name 2 Tabs
Queen Of Winter, Throned Tabs
The Forest Whispers My Name 2 Tabs
The Snake - Eyed And The Venomous Intro Tabs


Song lyrics



↑ Back to top | Tablatures and chords are parodies/interpretations of the original songs. You may use it for private study, scholarship, research or language learning purposes only
© 2014 AZChords.com Contact us | Privacy policy | DMCA | Add/correct tabs | Request tabs | Top 50 tabs