» » »

Cradle Of Filth, A Gothic Romance Tabs (ver.2)

Artists:  A B C D E F G H I J K L M N O P Q R S T U V W X Y Z # 

A Gothic Romance Tabs (ver.2)

Cradle Of Filth Tabs
 Rating:
3.8/5 (5 votes)
A Gothic Romance lessons Tabs too difficult? Try these video lessons and learn fast
1
                CRADLE OF FILTH
'A Gothic Romance'

  Andres Bueno


Intro
E||--------------------3-----3-4-3---3-----------------3-----3-4-3---------||
B||----4---3-4-6---4-6-----6-------6---4---3-4-6---4-6-----6-------6-4-3---||
G||------------------------------------------------------------------------||
D||------------------------------------------------------------------------||
A||------------------------------------------------------------------------||
E||------------------------------------------------------------------------||

E||--------------------------------------||
B||----4-4--3-3-------4-4--3-3-----------||
G||--------------0-5-----------5-5 --0-5-|| X 4 (4times)
D||--------------------------------------||
A||--------------------------------------||
E||--------------------------------------||

Interlude
E||------------------------------------------------------------------------||
B||-----10-----10-----10-----10-----9-----9-----9-----9--------------------||
G||--------9-7----9-7----9-7----9-7---8-6---8-6---8-6---8-6----------------||
D||------------------------------------------------------------------------||
A||------------------------------------------------------------------------||
E||------------------------------------------------------------------------||

E||------------------------------------------------------------------------||
B||-----10-----10-----10-----10-----11------11------11------11-------------||
G||--------9-7----9-7----9-7----9-7----10-8----10-8----10-8----10-8--------||
D||------------------------------------------------------------------------||
A||------------------------------------------------------------------------||
E||------------------------------------------------------------------------||

Part # 1

E||------------------------------------------------------------------------||
B||------------------------------------------------------------------------||
G||-----7--7--7--7--7--7--7--7--6--6--6--6--6--6--6--6---------------------||
D||-----7--7--7--7--7--7--7--7--6--6--6--6--6--6--6--6---------------------||
A||-----5--5--5--5--5--5--5--5--4--4--4--4--4--4--4--4---------------------||
E||------------------------------------------------------------------------||

E||------------------------------------------------------------------------||
B||------------------------------------------------------------------------||
G||-----7--7--7--7--7--7--7--7--8--8--8--8--8--8--8--8---------------------||
D||-----7--7--7--7--7--7--7--7--8--8--8--8--8--8--8--8---------------------||
A||-----5--5--5--5--5--5--5--5--6--6--6--6--6--6--6--6---------------------||
E||------------------------------------------------------------------------||

E||------------------------------------------------------------------------||
B||------------------------------------------------------------------------||
G||------------------------------------------------------------------------||
D||------6--6--6--6--6--6--6--6--------------------------------------------||
A||------6--6--6--6--6--6--6--6--------------------------------------------||
E||------4--4--4--4--4--4--4--4--------------------------------------------||


X2 part 1 (2times)

Part # 2

E||------------------------------------------------------------------------||
B||------------------------------------------------------------------------||
G||------5--5--5--5--5--5--5--5---5---5------------------------------------||
D||------5--5--5--5--5--5--5--5---5-8-5-8--6--6--6--6--10-10-10-12-12-12---||
A||------3--3--3--3--3--3--3--3---3-8-3-8--6--6--6--6--10-10-10-12-12-12---||
E||---------------------------------6---6--4--4--4--4---8--8--8-10-10-10---||

E||------------------------------------------------------------------------||
B||------------------------------------------------------------------------||
G||------------------------------------------------------------------------||
D||----6--6--6--6--6--5--3--3--3--3--5--5--5--5--6--6--6--5--5--5----------||
A||----6--6--6--6--6--5--3--3--3--3--5--5--5--5--6--6--6--5--5--5----------||
E||----4--4--4--4--4--3--1--1--1--1--3--3--3--3--4--4--4--3--3--3----------||

X2 part 2 (2times)

E||------------------------------------------------------------------------||
B||------------------------------------------------------------------------||
G||------------------------------------------------------------------------||
D||----8--8--8--8--8--8--7-7-8-8-7-5--5--5--5--5--5--5--5------------------||
A||----8--8--8--8--8--8--7-7-8-8-7-5--5--5--5--5--5--5--5------------------||
E||----6--6--6--6--6--6--5-5-6-6-5-3--3--3--3--3--3--3--3------------------||

X3

E||------------------------------------------------------------------------||
B||------------------------------------------------------------------------||
G||------------------------------------------------------------------------||
D||----8--8--8--8--8--8--7-7-8-8-7-----------------------------------------||
A||----8--8--8--8--8--8--7-7-8-8-7-----------------------------------------||
E||----6--6--6--6--6--6--5-5-6-6-5-----------------------------------------||

X1 Part # 2 (once)

X2 Part # 1 (2times)

This is of the first 3 minutes....vote good or if it sucks
            
Submit corrections

comments powered by Disqus
↑ Back to top | Cradle Of Filth Tabs for A Gothic Romance. Lyrics for acoustic guitar and electric guitar. 1 Tablatures and chords are parodies/interpretations of the original songs. You may use it for private study, scholarship, research or language learning purposes only