>
 >
A Gothic Romance

A Gothic Romance Bass Tabs

Cradle Of Filth - A Gothic Romance chords, tabs, tablatures, lyrics

Guitar lessons | Add/correct | Request | Top 50 tabs Artists:  A B C D E F G H I J K L M N O P Q R S T U V W X Y Z 0-9

A Gothic Romance Bass Tabs – Cradle Of Filth

CD, Sheet music, Poster

Do you like A Gothic Romance? Share with your friends now
Bass TabsTabsTabs v2Tabs v3
Cradle of Filth - A Gothic Romance

Tuning: Drop D 
D A D G



------------------|----------------|------------------|
------------------|----------------|------------------|
------------------|--5-------------|------------------|
------------------|----------------|------------------|



-------------------|-------------------|----------------|------------------|
-------------------|-------------------|----------------|------------------|
--4----------------|-------------------|--5-------------|------------------|
-------------------|--6----------------|----------------|------------------|



-------------------------|-------------------|-------------------|
-------------------------|-------------------|-------------------|
--6------------8----6----|-------------------|--5----------------|
-------------------------|--6----------------|-------------------|



------------------|---------------|-------------------|-------------------|
------------------|---------------|-------------------|-------------------|
------------------|--4------------|-------------------|--5----------------|
------------------|---------------|--6----------------|-------------------|



------------------|-------------------------|-------------------|
------------------|-------------------------|-------------------|
------------------|--6------------8----6----|-------------------|
------------------|-------------------------|--6----------------|



----------------------------------|----------------------------------|
----------------------------------|----------------------------------|
--5----5--5--5----5----5--5--5----|--5----5--5--5----5----5--5--5----|
----------------------------------|----------------------------------|



----------------------------------|----------------------------------|
----------------------------------|----------------------------------|
--4----4--4--4----4----4--4--4----|----------------------------------|
----------------------------------|--6----6--6--6----6----6--6--6----|



----------------------------------|----------------------------------|
----------------------------------|----------------------------------|
--5----5--5--5----5----5--5--5----|--5----5--5--5----5----5--5--5----|
----------------------------------|----------------------------------|



---------------------------------|----------------------------------|
---------------------------------|----------------------------------|
--6----6--6--6----6----8----6----|----------------------------------|
---------------------------------|--6----6--6--6----6----6--6--6----|



----------------------------------|----------------------------------|
----------------------------------|----------------------------------|
--3----3--3--3----3----3--3--3----|--3----3--3--3----3----3--3--3----|
----------------------------------|----------------------------------|



----------------------------------|----------------------------------|
----------------------------------|----------------------------------|
--1----1--1--1----1----1--1--1----|--1----1--1--1----1----1--1--1----|
----------------------------------|----------------------------------|



---------------------------------|----------------------------------|
---------------------------------|----------------------------------|
---------------------------------|----------------------------------|
--6----6--6--6----6----6----5----|--3----3--3--3----3----3--3--3----|



----------------------------------|----------------------------------|
----------------------------------|----------------------------------|
--3----3--3--3----3----3--3--3----|--3----3--3--3----3----3--3--3----|
----------------------------------|----------------------------------|



----------------------------------|----------------------------------|
----------------------------------|----------------------------------|
--3----3--3--3----3----3--3--3----|--3----3--3--3----3----3--3--3----|
----------------------------------|----------------------------------|



----------------------------------|----------------------------------|
----------------------------------|----------------------------------|
--1----1--1--1----1----1--1--1----|--1----1--1--1----1----1--1--1----|
----------------------------------|----------------------------------|



---------------------------------|----------------------------------|
---------------------------------|----------------------------------|
---------------------------------|----------------------------------|
--6----6--6--6----6----6----5----|--3----3--3--3----3----3--3--3----|



----------------------------------|----------------------------------|
----------------------------------|----------------------------------|
----------------------------------|----------------------------------|
--5----5--5--5----5----5--5--5----|--5----5--5--5----5----5--5--5----|



----------------------------------|---------------------------------|
----------------------------------|---------------------------------|
--1----1--1--1----1----1--1--1----|--0----0--0--0----1----1----0----|
----------------------------------|---------------------------------|



----------------------------------|----------------------------------|
----------------------------------|----------------------------------|
----------------------------------|----------------------------------|
--5----5--5--5----5----5--5--5----|--5----5--5--5----5----5--5--5----|



----------------------------------|---------------------------------|
----------------------------------|---------------------------------|
--1----1--1--1----1----1--1--1----|--0----0--0--0----1----1----0----|
----------------------------------|---------------------------------|



----------------------------------|----------------------------------|
----------------------------------|----------------------------------|
----------------------------------|----------------------------------|
--5----5--5--5----5----5--5--5----|--5----5--5--5----5----5--5--5----|



--------------------------------|--------------------------------|
--------------------------------|--------------------------------|
--1----1----1----1----1----1----|--0----0----0----1----1----0----|
--------------------------------|--------------------------------|



--------------------------------|--------------------------------|
--------------------------------|--------------------------------|
--------------------------------|--------------------------------|
--5----5----5----5----5----5----|--5----5----5----5----5----5----|



--------------------------------|-------------------------|
--------------------------------|-------------------------|
--1----1----1----1----1----1----|--0--------1--------0----|
--------------------------------|-------------------------|



----------------------------------|----------------------------------|
----------------------------------|----------------------------------|
--3----3--3--3----3----3--3--3----|--3----3--3--3----3----3--3--3----|
----------------------------------|----------------------------------|



----------------------------------|----------------------------------|
----------------------------------|----------------------------------|
--1----1--1--1----1----1--1--1----|--1----1--1--1----1----1--1--1----|
----------------------------------|----------------------------------|



---------------------------------|----------------------------------|
---------------------------------|----------------------------------|
---------------------------------|----------------------------------|
--6----6--6--6----6----6----5----|--3----3--3--3----3----3--3--3----|



----------------------------------|----------------------------------|
----------------------------------|----------------------------------|
--3----3--3--3----3----3--3--3----|--3----3--3--3----3----3--3--3----|
----------------------------------|----------------------------------|



----------------------------------|----------------------------------|
----------------------------------|----------------------------------|
--5----5--5--5----5----5--5--5----|--5----5--5--5----5----5--5--5----|
----------------------------------|----------------------------------|



----------------------------------|----------------------------------|
----------------------------------|----------------------------------|
--4----4--4--4----4----4--4--4----|----------------------------------|
----------------------------------|--6----6--6--6----6----6--6--6----|



----------------------------------|----------------------------------|
----------------------------------|----------------------------------|
--5----5--5--5----5----5--5--5----|--5----5--5--5----5----5--5--5----|
----------------------------------|----------------------------------|



---------------------------------|----------------------------------|
---------------------------------|----------------------------------|
--6----6--6--6----6----8----6----|----------------------------------|
---------------------------------|--6----6--6--6----6----6--6--6----|



----------------------------------|----------------------------------|
----------------------------------|----------------------------------|
--5----5--5--5----5----5--5--5----|--5----5--5--5----5----5--5--5----|
----------------------------------|----------------------------------|



----------------------------------|----------------------------------|
----------------------------------|----------------------------------|
--4----4--4--4----4----4--4--4----|----------------------------------|
----------------------------------|--6----6--6--6----6----6--6--6----|



----------------------------------|----------------------------------|
----------------------------------|----------------------------------|
--5----5--5--5----5----5--5--5----|--5----5--5--5----5----5--5--5----|
----------------------------------|----------------------------------|



---------------------------------|----------------------------------|
---------------------------------|----------------------------------|
--6----6--6--6----6----8----6----|----------------------------------|
---------------------------------|--6----6--6--6----6----6--6--6----|



-------------------|-------------------------------|
-------------------|-------------------------------|
-------------------|-------------------------------|
--5----------------|--8--------10--8--7--10--8--7--|



---------------------------------------------------------------------------|
---------------------------------------------------------------------------|
--------------------6--6--6--6--6--6------------------------------8--6--5--|
--5--5--5--5--5--5--------------------8--8--8--8--8--8--10--8--7-----------|



--------------------------------------------------------------------------|
--------------------6--6--6--3--3--3--------------------------------------|
--3--3--3--3--3--3--------------------6--6--6--6--6--6--8--6--5--8--6--5--|
--------------------------------------------------------------------------|



---------------------------------------------------------------------------|
--------------------6--6--6--3--3--3---------------------------------------|
--3--3--3--3--3--3--------------------6--6--6--6--6--6--8--6--5------------|
-----------------------------------------------------------------10--8--7--|



---------------------------------------------------------------------------|
---------------------------------------------------------------------------|
--------------------6--6--6--6--6--6---------------------------------------|
--5--5--5--5--5--5-------------------8--8--8--8--8--8--10--8--7--10--8--7--|



--------------------------------------------------------------------------|
--------------------------------------------------------------------------|
-------------------6--6--6--6--6--6-------------------------------8--6--5-|
-5--5--5--5--5--5--------------------8--8--8--8--8--8--10--8--7-----------|



----------------------------------|----------------------------------|
----------------------------------|----------------------------------|
--3-3-3-3-4-4-3-3-1-1-1-1-3-3-1-1-|----------------------------------|
----------------------------------|--6-6-8-8-6-6-3-3-5-5-6-6-5-5-1-1-|



----------------------------------|----------------------------------|
----------------------------------|----------------------------------|
----------------------------------|----------------------------------|
--6-6-6-6-6-6-6-6-6-6-6-6-6-6-6-6-|--5-5-5-5-5-5-5-5-8-8-8-8-8-8-8-8-|



------------------------|--------------------------|
------------------------|--------------------------|
--3----4--3--1----3--1--|--------------------------|
------------------------|--6--8--6--3--5--6--5--1--|



----------------------------------|----------------------------------|
----------------------------------|----------------------------------|
----------------------------------|----------------------------------|
--6-6-6-6-6-6-6-6-6-6-6-6-6-6-6-6-|--5-5-5-5-5-5-5-5-8-8-8-8-8-8-8-8-|



----------------------------------|----------------------------------|
----------------------------------|----------------------------------|
--3-3-3-3-4-4-3-3-1-1-1-1-3-3-1-1-|----------------------------------|
----------------------------------|--6-6-8-8-6-6-3-3-5-5-6-6-5-5-1-1-|



----------------------------------|----------------------------------|
----------------------------------|----------------------------------|
----------------------------------|----------------------------------|
--6-6-6-6-6-6-6-6-6-6-6-6-6-6-6-6-|--5-5-5-5-5-5-5-5-8-8-8-8-8-8-8-8-|



----------------------------------|----------------------------------|
----------------------------------|----------------------------------|
--3-3-3-3-4-4-3-3-1-1-1-1-3-3-1-1-|----------------------------------|
----------------------------------|--6-6-8-8-6-6-3-3-5-5-6-6-5-5-1-1-|



----------------------------------|----------------------------------|
----------------------------------|----------------------------------|
----------------------------------|----------------------------------|
--6-6-6-6-6-6-6-6-6-6-6-6-6-6-6-6-|--5-5-5-5-5-5-5-5-8-8-8-8-8-8-8-8-|




------------------|------------------|--------------------------|
------------------|------------------|--------------------------|
------------------|------------------|--3--3--3--3--3--3--3--3--|
------------------|------------------|--------------------------|



--------------------------|--------------------------|
--------------------------|--------------------------|
--5--5--5--5--5--5--5--5--|--6--6--6--6--6--6--5--6--|
--------------------------|--------------------------|



--------------------------|--------------------------|
--------------------------|--------------------------|
--5--5--5--5--6--6--5--5--|--3--3--3--3--3--3--3--3--|
--------------------------|--------------------------|



--------------------------|--------------------------|
--------------------------|--------------------------|
--5--5--5--5--5--5--5--5--|--6--6--6--6--6--6--5--6--|
--------------------------|--------------------------|



--------------------------|--------------------------|
--------------------------|--------------------------|
--5--5--5--5--6--6--5--5--|--3--3--3--3--3--3--3--3--|
--------------------------|--------------------------|



--------------------------|--------------------------|
--------------------------|--------------------------|
--5--5--5--5--5--5--5--5--|--6--6--6--6--6--6--5--6--|
--------------------------|--------------------------|



--------------------------|--------------------------|
--------------------------|--------------------------|
--5--5--5--5--6--6--5--5--|--3--3--3--3--3--3--3--3--|
--------------------------|--------------------------|



--------------------------|--------------------------|
--------------------------|--------------------------|
--5--5--5--5--5--5--5--5--|--6--6--6--6--6--6--5--6--|
--------------------------|--------------------------|



--------------------------|----------------------------------|
--------------------------|----------------------------------|
--5--5--5--5--6--6--5--5--|----------------------------------|
--------------------------|--0-0-3-0-2-3-2-3-0-0-3-0-2-6-5-3-|



---------------------------------|----------------------------------|
---------------------------------|----------------------------------|
---------------------------------|----------------------------------|
--0-0-3-0-2-3-2-3-0-0-3-6--6-6-6-|--0-0-3-0-2-3-2-3-0-0-3-0-2-6-5-3-|



---------------------------------|----------------------------------|
---------------------------------|----------------------------------|
---------------------------------|----------------------------------|
--0-0-3-0-2-3-2-3-0-0-3-6--6-6-6-|--0-0-3-0-2-3-2-3-0-0-3-0-2-6-5-3-|



---------------------------------|----------------------------------|
---------------------------------|----------------------------------|
---------------------------------|----------------------------------|
--0-0-3-0-2-3-2-3-0-0-3-6--6-6-6-|--0-0-3-0-2-3-2-3-0-0-3-0-2-6-5-3-|



---------------------------------|----------------------------------|
---------------------------------|----------------------------------|
---------------------------------|--5-5-5-5-5-5-5-5-5-5-5-5-5-5-5-5-|
--0-0-3-0-2-3-2-3-0-0-3-6--6-6-6-|----------------------------------|



----------------------------------|----------------------------------|
----------------------------------|----------------------------------|
--4-4-4-4-4-4-4-4-----------------|--5-5-5-5-5-5-5-5-5-5-5-5-5-5-5-5-|
------------------6-6-6-6-6-6-6-6-|----------------------------------|



----------------------------------|----------------------------------|
----------------------------------|----------------------------------|
--6-6-6-6-6-6-6-6-----------------|--5-5-5-5-5-5-5-5-5-5-5-5-5-5-5-5-|
------------------6-6-6-6-6-6-6-6-|----------------------------------|



----------------------------------|----------------------------------|
----------------------------------|----------------------------------|
--4-4-4-4-4-4-4-4-----------------|--5-5-5-5-5-5-5-5-5-5-5-5-5-5-5-5-|
------------------6-6-6-6-6-6-6-6-|----------------------------------|



---------------------------------|--------------------|--------------------|
---------------------------------|--------------------|--------------------|
--6-6-6-6-6-6-6-6----------------|--3-----------------|--3-----------------|
------------------6-6-6-6-6-6-5--|-----------------5--|-----------------5--|



--------------------|--------------------|------------------------|
--------------------|--------------------|------------------------|
--3-----------------|--3-----------------|--3--6--6--5--5---------|
-----------------5--|-----------------5--|---------------------5--|



------------------------|------------------------|------------------------|
------------------------|------------------------|------------------------|
--3--6--6--5--5--3--3---|--3--6--6--5--5---------|--3--6--6--5--5--3--3---|
------------------------|------------------------|------------------------|





Comments


Popular Cradle Of Filth tabs & chords
Born In A Burial Gown Bass Tabs
The Black Goddess Rises Ii Bass Tabs
Death Comes Ripping Misfits Cover Tabs
Doberman Pharaoh Tabs
Her Ghost In The Fog 1 Tabs
Lovesick For Mina Intro Tabs
Nymphetamine 5 Tabs
The Raping Of Faith Tabs
Tragic Kingdom Tabs
Unbridled At Dusk Tabs


Song lyrics



↑ Back to top | Tablatures and chords are parodies/interpretations of the original songs. You may use it for private study, scholarship, research or language learning purposes only
© 2014 AZChords.com Contact us | Privacy policy | DMCA | Add/correct tabs | Request tabs | Top 50 tabs