>
 >
Untitled 1

Untitled 1 Guitar Tabs

Collective Soul - Untitled 1 chords, tabs, tablatures, lyrics

Guitar lessons | Add/correct | Request | Top 50 tabs Artists:  A B C D E F G H I J K L M N O P Q R S T U V W X Y Z 0-9

Untitled 1 Guitar Tabs – Collective Soul

CD, Sheet music, Poster

Do you like Untitled 1? Share with your friends now
ChordsTabsTabs v2Ukulele
Untitled By Collective Soul


This Song is Really Cool And it is soooo fun to play.
The Whole thing is in 4/4 time at about 182 beats per minute.
The Solo took me a while and it is pretty tough especially the
little walk down from the fifteenth to the sixth fret because
it is a triplet pattern.  I am not too sure whether the solo is
right but try it for yourself and if you want to change it tell
me first so I can get it too.

The Parts that are tabbed out are for Guitar one which has
distortion through out the whole of the song except for
the open chords.
The Parts that are background and the extra chords over the
chorus are guitar 2 . . . always distorted.


Get to it . . . the lyrics are at the bottom
                                                                        
E---2--2--2--2--|--0--0--0--0--|--0--0--0--0--|--3--3--3--3--|--2--2----
B---3--3--3--3--|--0--0--0--0--|--1--1--1--1--|--3--3--3--3--|--3--3----
G---2--2--2--2--|--0--0--0--0--|--0--0--0--0--|--0--0--0--0--|--2--2----
D---0--0--0--0--|--2--2--2--2--|--2--2--2--2--|--0--0--0--0--|--0--0----
A---------------|--2--2--2--2--|--3--3--3--3--|--2--2--2--2--|----------
E---------------|--0--0--0--0--|--------------|--3--3--3--3--|----------
                                                                        

                                                                        
E---2--2--|--0--0--0--0--|--0--0--0--0--|--0--0--0--0--0----------------
B---3--3--|--0--0--0--0--|--1--1--1--1--|--1--1--1--1--1----------------
G---2--2--|--0--0--0--0--|--0--0--0--0--|--0--0--0--0--0----------------
D---0--0--|--2--2--2--2--|--2--2--2--2--|--2--2--2--2--2----------------
A---------|--2--2--2--2--|--3--3--3--3--|--3--3--3--3--3----------------
E---------|--0--0--0--0--|--------------|-------------------------------
                                                                        

                            &                                           
E---------------------------||------------------------|-----------------
B---------------------------||------------------------|-----------------
G---------------------------||*-----------------------|--------5--------
D---------------------------||*--2--2--2--2--2--2--2--|--5--7-----5-----
A---------------------------||---2--2--2--2--2--2--2--|-----------------
E---------------------------||---0--0--0--3--0--0--3--|-----------------
                                                                        

                                                                        
E------|-----------------------|--3--2--3--2--0---||--||----------------
B------|-----------------------|--3--2--3--2--0---||--||----------------
G------|-----------------------|-----------------*||--||*---------------
D---7--|--2--2--2--2--2--2--2--|-----------------*||--||*---------------
A------|--2--2--2--2--2--2--2--|------------------||--||----------------
E------|--0--0--0--3--0--0--3--|------------------||--||----------------
                                                                        

    Who Have I Left . . .                   2x                          
E------------------------|------------------||--------------------------
B------------------------|------------------||--------------------------
G------------------------|--------5--------*||--------------------------
D---2--2--2--2--2--2--2--|--5--7-----5--7--*||--2--2--2--2--2--2--2-----
A---2--2--2--2--2--2--2--|------------------||--2--2--2--2--2--2--2-----
E---0--0--0--3--0--0--3--|------------------||--0--0--0--3--0--0--3-----
                                                                        

                           Unveil To Me                                 
E---|--3--2--3--2--0---||--------------|--------------|-----------------
B---|--3--2--3--2--0---||--------------|--------------|-----------------
G---|-----------------*||--------------|--------------|-----------------
D---|-----------------*||--5--5--5--5--|--5--5--5--5--|--5--5--5--5-----
A---|------------------||--5--5--5--5--|--5--5--5--5--|--5--5--5--5-----
E---|------------------||--3--3--3--3--|--3--3--3--3--|--3--3--3--3-----
                                                                        

                                                                        
E---|--------------|-----------------------|-----------------|----------
B---|--------------|-----------------------|-----------------|----------
G---|--------------|-----------------------|--------5--------|----------
D---|--5--5--5--5--|--2--2--2--2--2--2--2--|--5--7-----5--7--|--2--2----
A---|--5--5--5--5--|--2--2--2--2--2--2--2--|-----------------|--2--2----
E---|--3--3--3--3--|--0--0--0--3--0--0--3--|-----------------|--0--0----
                                                                        

                                        Why Should I Stop               
E------------------|--3--2--3--2--0--|--------------|--------------|----
B------------------|--3--2--3--2--0--|--------------|--------------|----
G------------------|-----------------|--------------|--------------|----
D---2--2--2--2--2--|-----------------|--5--5--5--5--|--------------|----
A---2--2--2--2--2--|-----------------|--5--5--5--5--|--------------|----
E---0--3--0--0--3--|-----------------|--3--3--3--3--|--------------|----
                                                                        

    Bearing Allegiance to you                                           
E---------------|--------------|-----------------------|----------------
B---------------|--------------|-----------------------|----------------
G---------------|--------------|-----------------------|--------5-------
D---5--5--5--5--|--------------|--2--2--2--2--2--2--2--|--5--7-----5----
A---5--5--5--5--|--------------|--2--2--2--2--2--2--2--|----------------
E---3--3--3--3--|--------------|--0--0--0--3--0--0--3--|----------------
                                                                        
                                           Gtr 2 play D 
                                                      I don't           
E------|-----------------------|--3--2--3--2--0--||---2--2--2--2--|-----
B------|-----------------------|--3--2--3--2--0--||---3--3--3--3--|-----
G------|-----------------------|-----------------||*--2--2--2--2--|-----
D---7--|--2--2--2--2--2--2--2--|-----------------||*--0--0--0--0--|-----
A------|--2--2--2--2--2--2--2--|-----------------||---------------|-----
E------|--0--0--0--3--0--0--3--|-----------------||---------------|-----
                                                                        
 E                C               G              D
    believe in  the sorcerers     or the preacherI just                 
E---0--0--0--0--|--0--0--0--0--|--3--3--3--3--|--2--2--2--2--|----------
B---0--0--0--0--|--1--1--1--1--|--3--3--3--3--|--3--3--3--3--|----------
G---0--0--0--0--|--0--0--0--0--|--0--0--0--0--|--2--2--2--2--|----------
D---2--2--2--2--|--2--2--2--2--|--0--0--0--0--|--0--0--0--0--|----------
A---2--2--2--2--|--3--3--3--3--|--2--2--2--2--|--------------|----------
E---0--0--0--0--|--------------|--3--3--3--3--|--------------|----------
                                                                        
 E               C               C
    believe in     you                                                  
E---0--0--0--0--|--0--0--0--0--|--0--0--0--0---||-----------------------
B---0--0--0--0--|--1--1--1--1--|--1--1--1--1---||-----------------------
G---0--0--0--0--|--0--0--0--0--|--0--0--0--0--*||-----------------------
D---2--2--2--2--|--2--2--2--2--|--2--2--2--2--*||-----------------------
A---2--2--2--2--|--3--3--3--3--|--3--3--3--3---||-----------------------
E---0--0--0--0--|--------------|---------------||-----------------------
                                                                        

Go all the way back to the &                   Ryth Fig 1           
(ignore this on time 2)
E---------------------------------------------||------------------------
B---------------------------------------------||------------------------
G---------------------------------------------||*-----------------------
D---------------------------------------------||*--2--2--2--2--2--2-----
A---------------------------------------------||---2--2--2--2--2--2-----
E---------------------------------------------||---0--0--0--3--0--0-----
                                                                        

                            End 3xg 1             3x                    
E---|---------------------------||-----||---------||--||----------------
B---|---------------------------||-----||---------||--||----------------
G---|--------------------------*||-----||*-------*||--||*---------------
D---|--2-----------------------*||-----||*-------*||--||*---------------
A---|--2------------------------||--2--||---------||--||---2--2--2------
E---|--3--3--2--0--3--2--0------||--0--||---(0)---||--||---0--0--0------
                                                                        

                          3x  Solo (Gtr 2 Plays Fig 1)                         
E---------|---------------||--------------------------------------------
B---------|---------------||--15^--15^--15^--15^--15^--15--15^--15------
G---------|--------------*||--------------------------------------------
D---------|-----4--4--4--*||--------------------------------------------
A---2--2--|--2--5--5--5---||--------------------------------------------
E---0--0--|--0------------||--------------------------------------------
                                                                        

                                                                        
E-----------------------------------------------------------------------
B---15^--15^--15^--15^--12--17^--17^--17^--17--15--12--15--12--15-------
G-----------------------------------------------------------------------
D-----------------------------------------------------------------------
A-----------------------------------------------------------------------
E-----------------------------------------------------------------------
                                                                        

                                                                        
E-----------------------------------------------------------------------
B---15--14--13--14--13--12--13--12--11--12--11--10--11--10--9--10--9----
G-----------------------------------------------------------------------
D-----------------------------------------------------------------------
A-----------------------------------------------------------------------
E-----------------------------------------------------------------------
                                                                        

                                                                        
E----------------------------------------9------------------------------
B---8--9--8--7--8--7--6-----------10--8--9^--12^--12--10--8--10--10-----
G------------------------------7----------------------------------------
D------------------------7--9-------------------------------------------
A-----------------------------------------------------------------------
E-----------------------------------------------------------------------
                                                                        

                                                                        
E------------------------------12^--17^--15-----------17^--15-----------
B---10--12^--10--9--12--9--12----------------17^--15-----------17^------
G-----------------------------------------------------------------------
D-----------------------------------------------------------------------
A-----------------------------------------------------------------------
E-----------------------------------------------------------------------
                                                                        

                                                                        
E-------------------------|--2--2--2--2--|--0--0--0--0--|--0--0--0------
B---15--15--13--15~~~~~~--|--3--3--3--3--|--0--0--0--0--|--1--1--1------
G-------------------------|--2--2--2--2--|--0--0--0--0--|--0--0--0------
D-------------------------|--0--0--0--0--|--2--2--2--2--|--2--2--2------
A-------------------------|--------------|--2--2--2--2--|--3--3--3------
E-------------------------|--------------|--0--0--0--0--|---------------
                                                                        

                                                                        
E---0--|--3--3--3--3--|--2--2--2--2--|--0--0--0--0--|--0--0--0--0--|----
B---1--|--3--3--3--3--|--3--3--3--3--|--0--0--0--0--|--1--1--1--1--|----
G---0--|--0--0--0--0--|--2--2--2--2--|--0--0--0--0--|--0--0--0--0--|----
D---2--|--0--0--0--0--|--0--0--0--0--|--2--2--2--2--|--2--2--2--2--|----
A---3--|--2--2--2--2--|--------------|--2--2--2--2--|--3--3--3--3--|----
E------|--3--3--3--3--|--------------|--0--0--0--0--|--------------|----
                                                                        

                 3x                                                     
E---0--0--0--0---||--||---0--0--0--0---||--3----------------------------
B---1--1--1--1---||--||---1--1--1--1---||--3----------------------------
G---0--0--0--0--*||--||*--3--3--3--3--*||--0----------------------------
D---2--2--2--2--*||--||*--2--2--2--2--*||--0----------------------------
A---3--3--3--3---||--||---3--3--3--3---||--2----------------------------
E----------------||--||----------------||--3----------------------------
==                           EXTRA CHORDS                             ==
   D    E    C    G
 E--------------------
 B--------------------
 G-7---------5--------
 D-7----2----5----5---
 A-5----2----3----5---
 E------0---------3---
==                              LYRICS                                ==
Who Have I left to please?
Take what you've yet to seize
No more questioning
Cause Love is what Love Should Be

Unveil To Me
All that you want me to do
Why Should I stop
Bearing Allegiance to you

I don't believe in
The Sorcerers or the Preachers
I just believe in you
I don't believe in
the Scholars or the wise men.
I just believe in you

What Have I left to prove?
I speak all the words you choose
Confine me in walls of truth
Cause love does what love should do

No more sentence
All of my pain
has been freed
Why should I end
when your mercy's
all I need

I don't believe in
The Sorcerers or the Preachers
I just believe in you
I don't believe in
the Scholars or the wise men.
I just believe in you


==                       TABLATURE EXPLANATION                        ==

----------                ----------                ----t---
----5h8--- Hammeron       ----(8)--- Ringing        ----6--- Tap
----------                ---------- Note           --------
----5p8--- Pulloff        ----------                --------

----------                ----------                -----p--
----5/8--- Slide Up       -----x---- Dead           -----7-- Pop
----------                ---------- Note           --s-----
----5\8--- Slide Down     ----------                --5----- Slap 

----------                ||------|| Repeat         --------
----5~~~-- Vibrato        ||*----*||                ---5^--- Bend
----------                ||*----*||                --------
----------                ||------||                --------

----------                ----------                --------
-4:------- Time           ----------                --------
-4:------- Signature      ----------                --------
----------                ----------                --------





Comments


Popular Collective Soul tabs & chords
Bearing Witness Bass Tabs
December Bass Tabs
Energy 1 Bass Tabs
Gel 3 Bass Tabs
Perfect Day  Bass Tabs
Breathe 1 Tabs
Love Lifted Me 1 Tabs
Perfect To Stay Tabs
Precious Declaration 1 Tabs
Welcome All Again Tabs


Song lyrics



↑ Back to top | Tablatures and chords are parodies/interpretations of the original songs. You may use it for private study, scholarship, research or language learning purposes only
© 2014 AZChords.com Contact us | Privacy policy | DMCA | Add/correct tabs | Request tabs | Top 50 tabs