» » »

Reunion Tabs (ver.3)

Artists:  A B C D E F G H I J K L M N O P Q R S T U V W X Y Z # 

Reunion Tabs (ver.3)

Collective Soul
Rating:
0/5 (0 votes)

Hard to play? Try these video lessons and learn fast.
                E--5/7-10-7-10-7/3-3-----------
B-------------------0-3-0-3/5-

E----------------------5/7-3h5
B-3-0-3-0-3/5-3---------------
G--------------0-2-0-2--------

E-/7-3-3-3h5/7-3--3h5/7-3-5/7-8
B---------------3-------------

E-10-8-7-7-3h5/7-3-3-3h5/7-12-
B----------------------------
 
E-10-7-----------------------
B----------------------------

Listen to the song for timing and stuff 
            
Hard to play? Try these video lessons and learn fast. | Correct




comments powered by Disqus
↑ Back to top | Tablatures and chords are parodies/interpretations of the original songs. You may use it for private study, scholarship, research or language learning purposes only