>
 >
Reunion 1

Reunion 1 Guitar Tabs

Collective Soul - Reunion 1 chords, tabs, tablatures, lyrics

Guitar lessons | Add/correct | Request | Top 50 tabs Artists:  A B C D E F G H I J K L M N O P Q R S T U V W X Y Z 0-9

Reunion 1 Guitar Tabs – Collective Soul

CD, Sheet music, Poster

Do you like Reunion 1? Share with your friends now
TabsTabs v2Tabs v3Tabs v4
E--5/7-10-7-10-7/3-3-----------
B-------------------0-3-0-3/5-

E----------------------5/7-3h5
B-3-0-3-0-3/5-3---------------
G--------------0-2-0-2--------

E-/7-3-3-3h5/7-3--3h5/7-3-5/7-8
B---------------3-------------

E-10-8-7-7-3h5/7-3-3-3h5/7-12-
B----------------------------
 
E-10-7-----------------------
B----------------------------

Listen to the song for timing and stuff 





Comments


Popular Collective Soul tabs & chords
Forgiveness 3 Bass Tabs
Why Part Chords
Adored 1 Tabs
All That I Know Tabs
Heavy Tabs
Heavy 1 Tabs
Listen 1 Tabs
New Vibration 1 Tabs
Man Without Skin Ukulele
Perfect To Stay 2 Ukulele


Song lyrics



↑ Back to top | Tablatures and chords are parodies/interpretations of the original songs. You may use it for private study, scholarship, research or language learning purposes only
© 2014 AZChords.com Contact us | Privacy policy | DMCA | Add/correct tabs | Request tabs | Top 50 tabs