>
 >
Persuasion Of You

Persuasion Of You Guitar Tabs

Collective Soul - Persuasion Of You chords, tabs, tablatures, lyrics

Guitar lessons | Add/correct | Request | Top 50 tabs Artists:  A B C D E F G H I J K L M N O P Q R S T U V W X Y Z 0-9

Persuasion Of You Guitar Tabs – Collective Soul

CD, Sheet music, Poster

Do you like Persuasion Of You? Share with your friends now
Bass TabsTabs
-----------------------------------------------------------------------------
                   
                    Collective Soul - Persuasion of You (GUITAR)
                       
-----------------------------------------------------------------------------

Tuning: Half Step Down

=============================================================================

 Soul
Guitar 1



      E  E  Q    E  E  Q       E  E  E  E  H           E  E  Q    E  E  Q     
D#||------------------------|-----------------------|------------------------|
A#||------------------------|-----------------------|------------------------|
F#||------------------------|-----------------------|------------------------|
C#||--2--2-------5--5-------|--4--4-----2-----------|--2--2-------5--5-------|
G#||--2--2-------5--5-------|--4--4-----2-----------|--2--2-------5--5-------|
D#||--0--0-------3--3-------|--2--2-----0-----------|--0--0-------3--3-------|


  E  E  E  E  H           E  E  Q    E  E  Q       E  E  E  E  H         
-----------------------|------------------------|-----------------------|
-----------------------|------------------------|-----------------------|
-----------------------|------------------------|-----------------------|
--4--4-----2-----------|--2--2-------5--5-------|--4--4-----2-----------|
--4--4-----2-----------|--2--2-------5--5-------|--4--4-----2-----------|
--2--2-----0-----------|--0--0-------3--3-------|--2--2-----0-----------|


  E  E  Q    E  E  Q       E  E  E  E  H           E  E  Q    E  E  Q     
------------------------|-----------------------|------------------------|
------------------------|-----------------------|------------------------|
------------------------|-----------------------|------------------------|
--2--2-------5--5-------|--4--4-----2-----------|--2--2-------5--5-------|
--2--2-------5--5-------|--4--4-----2-----------|--2--2-------5--5-------|
--0--0-------3--3-------|--2--2-----0-----------|--0--0-------3--3-------|


  E  E  E  E  H           E  E  Q    E  E  Q       E  E  E  E  H         
-----------------------|------------------------|-----------------------|
-----------------------|------------------------|-----------------------|
-----------------------|------------------------|-----------------------|
--4--4-----2-----------|--2--2-------5--5-------|--4--4-----2-----------|
--4--4-----2-----------|--2--2-------5--5-------|--4--4-----2-----------|
--2--2-----0-----------|--0--0-------3--3-------|--2--2-----0-----------|


  E  E  Q    E  E  Q       E  E  E  E  H           E  E  Q    E  E  Q     
------------------------|-----------------------|------------------------|
------------------------|-----------------------|------------------------|
------------------------|-----------------------|------------------------|
--2--2-------5--5-------|--4--4-----2-----------|--2--2-------5--5-------|
--2--2-------5--5-------|--4--4-----2-----------|--2--2-------5--5-------|
--0--0-------3--3-------|--2--2-----0-----------|--0--0-------3--3-------|


  E  E  E  E  H           E  E  E  E  E  E  E  E     E  E  E  E  E  E  E  E   
-----------------------|--------------------------|--------------------------|
-----------------------|--------------------------|--------------------------|
-----------------------|--------------------------|--------------------------|
--4--4-----2-----------|--7--7--7--7--7--7--7--7--|--7--7--7--7--7--7--7--7--|
--4--4-----2-----------|--7--7--7--7--7--7--7--7--|--7--7--7--7--7--7--7--7--|
--2--2-----0-----------|--5--5--5--5--5--5--5--5--|--5--5--5--5--5--5--5--5--|


  E  E  Q    H                       E  E  E  E  E  E  E  E   
----------------------|-----------|--------------------------|
----------------------|-----------|--------------------------|
----------------------|-----------|--------------------------|
--2--2----------------|-----------|--7--7--7--7--7--7--7--7--|
--2--2----------------|-----------|--7--7--7--7--7--7--7--7--|
--0--0----------------|-----------|--5--5--5--5--5--5--5--5--|


  E  E  E  E  E  E  E  E     Q    Q    Q    Q       Q    Q    Q    Q     
--------------------------|----------------------|----------------------|
--------------------------|----------------------|----------------------|
--------------------------|----------------------|----------------------|
--7--7--7--7--7--7--7--7--|--2----2----2----2----|--4----4----4----4----|
--7--7--7--7--7--7--7--7--|--2----2----2----2----|--4----4----4----4----|
--5--5--5--5--5--5--5--5--|--0----0----0----0----|--2----2----2----2----|


  Q    Q    Q    Q       Q    Q    Q    Q       Q    Q    Q    Q     
----------------------|----------------------|----------------------|
----------------------|----------------------|----------------------|
--2----2----2----2----|----------------------|----------------------|
--2----2----2----2----|--2----2----2----2----|--2----2----2----2----|
--0----0----0----0----|--2----2----2----2----|--2----2----2----2----|
----------------------|--0----0----0----0----|--0----0----0----0----|


  Q    Q    Q    Q       Q    Q    Q    Q       E  E  Q    E  E  Q     
----------------------|----------------------|------------------------|
----------------------|----------------------|------------------------|
----------------------|--2----2----2----2----|------------------------|
--4----4----4----4----|--2----2----2----2----|--2--2-------5--5-------|
--4----4----4----4----|--0----0----0----0----|--2--2-------5--5-------|
--2----2----2----2----|----------------------|--0--0-------3--3-------|


  E  E  E  E  H           E  E  Q    E  E  Q       E  E  E  E  H         
-----------------------|------------------------|-----------------------|
-----------------------|------------------------|-----------------------|
-----------------------|------------------------|-----------------------|
--4--4-----2-----------|--2--2-------5--5-------|--4--4-----2-----------|
--4--4-----2-----------|--2--2-------5--5-------|--4--4-----2-----------|
--2--2-----0-----------|--0--0-------3--3-------|--2--2-----0-----------|


  E  E  Q    E  E  Q       E  E  E  E  H           E  E  Q    E  E  Q     
------------------------|-----------------------|------------------------|
------------------------|-----------------------|------------------------|
------------------------|-----------------------|------------------------|
-------------5--5-------|--4--4-----------------|-------------5--5-------|
--7--7------------------|-----------7-----------|--7--7------------------|
--0--0-------3--3-------|--2--2-----0-----------|--0--0-------3--3-------|


  E  E  E  E  H           E  E  Q    E  E  Q       E  E  E  E  H         
-----------------------|------------------------|-----------------------|
-----------------------|------------------------|-----------------------|
-----------------------|------------------------|-----------------------|
--4--4-----------------|-------------5--5-------|--4--4-----------------|
-----------7-----------|--7--7------------------|-----------7-----------|
--2--2-----0-----------|--0--0-------3--3-------|--2--2-----0-----------|


  E  E  Q    E  E  Q       E  E  E  E  H           E  E  E  E  E  E  E  E   
------------------------|-----------------------|--------------------------|
------------------------|-----------------------|--------------------------|
------------------------|-----------------------|--------------------------|
-------------5--5-------|--4--4-----------------|--7--7--7--7--7--7--7--7--|
--7--7------------------|-----------7-----------|--7--7--7--7--7--7--7--7--|
--0--0-------3--3-------|--2--2-----0-----------|--5--5--5--5--5--5--5--5--|


  E  E  E  E  E  E  E  E     E  E  Q    H                     
--------------------------|----------------------|-----------|
--------------------------|----------------------|-----------|
--------------------------|----------------------|-----------|
--7--7--7--7--7--7--7--7--|--2--2----------------|-----------|
--7--7--7--7--7--7--7--7--|--2--2----------------|-----------|
--5--5--5--5--5--5--5--5--|--0--0----------------|-----------|


  E  E  E  E  E  E  E  E     E  E  E  E  E  E  E  E     Q    Q    Q    Q     
--------------------------|--------------------------|----------------------|
--------------------------|--------------------------|----------------------|
--------------------------|--------------------------|----------------------|
--7--7--7--7--7--7--7--7--|--7--7--7--7--7--7--7--7--|--2----2----2----2----|
--7--7--7--7--7--7--7--7--|--7--7--7--7--7--7--7--7--|--2----2----2----2----|
--5--5--5--5--5--5--5--5--|--5--5--5--5--5--5--5--5--|--0----0----0----0----|


  Q    Q    Q    Q       Q    Q    Q    Q       Q    Q    Q    Q     
----------------------|----------------------|----------------------|
----------------------|----------------------|----------------------|
----------------------|--2----2----2----2----|----------------------|
--4----4----4----4----|--2----2----2----2----|--2----2----2----2----|
--4----4----4----4----|--0----0----0----0----|--2----2----2----2----|
--2----2----2----2----|----------------------|--0----0----0----0----|


  Q    Q    Q    Q       Q    Q    Q    Q       Q    Q    Q    Q     
----------------------|----------------------|----------------------|
----------------------|----------------------|----------------------|
----------------------|----------------------|--2----2----2----2----|
--2----2----2----2----|--4----4----4----4----|--2----2----2----2----|
--2----2----2----2----|--4----4----4----4----|--0----0----0----0----|
--0----0----0----0----|--2----2----2----2----|----------------------|


  Q    Q    Q    Q       Q    Q    Q    Q       Q    Q    Q    Q     
----------------------|----------------------|----------------------|
----------------------|----------------------|----------------------|
----------------------|----------------------|----------------------|
--2----2----2----2----|--2----2----2----2----|--4----4----4----4----|
--2----2----2----2----|--2----2----2----2----|--4----4----4----4----|
--0----0----0----0----|--0----0----0----0----|--2----2----2----2----|


  Q    Q    Q    Q       Q    Q    Q    Q       Q    Q    Q    Q     
----------------------|----------------------|----------------------|
----------------------|----------------------|----------------------|
--2----2----2----2----|----------------------|----------------------|
--2----2----2----2----|--2----2----2----2----|--2----2----2----2----|
--0----0----0----0----|--2----2----2----2----|--2----2----2----2----|
----------------------|--0----0----0----0----|--0----0----0----0----|


  Q    Q    Q    Q       Q    Q    Q    Q       Q    Q    Q    Q     
----------------------|----------------------|----------------------|
----------------------|----------------------|----------------------|
----------------------|--2----2----2----2----|----------------------|
--4----4----4----4----|--2----2----2----2----|--2----2----2----2----|
--4----4----4----4----|--0----0----0----0----|--2----2----2----2----|
--2----2----2----2----|----------------------|--0----0----0----0----|


  E  E  E  E  E  E  E  E     E  E  E  E  E  E  E  E     E  E  Q    E  E  Q     
--------------------------|--------------------------|------------------------|
--------------------------|--------------------------|------------------------|
--6--6--6--6--6--6--6--6--|--2--2--2--2--2--2--2--2--|------------------------|
--6--6--6--6--6--6--6--6--|--2--2--2--2--2--2--2--2--|--2--2-------2--2-------|
--4--4--4--4--4--4--4--4--|--0--0--0--0--0--0--0--0--|--2--2-------2--2-------|
--------------------------|--------------------------|--0--0-------0--0-------|


  E  E  Q    E  E  Q       E  E  E  E  E  E  E  E     E  E  E  E  E  E  E  E   
------------------------|--------------------------|--------------------------|
------------------------|--------------------------|--------------------------|
------------------------|--6--6--6--6--6--6--6--6--|--2--2--2--2--2--2--2--2--|
--2--2-------2--2-------|--6--6--6--6--6--6--6--6--|--2--2--2--2--2--2--2--2--|
--2--2-------2--2-------|--4--4--4--4--4--4--4--4--|--0--0--0--0--0--0--0--0--|
--0--0-------0--0-------|--------------------------|--------------------------|


  E  E  Q    E  E  Q       E  E  E  E  H           E  E  Q    E  E  Q     
------------------------|-----------------------|------------------------|
------------------------|-----------------------|------------------------|
------------------------|-----------------------|------------------------|
--2--2-------5--5-------|--4--4-----2-----------|--2--2-------5--5-------|
--2--2-------5--5-------|--4--4-----2-----------|--2--2-------5--5-------|
--0--0-------3--3-------|--2--2-----0-----------|--0--0-------3--3-------|


  E  E  E  E  H           E  E  Q    E  E  Q       E  E  E  E  H         
-----------------------|------------------------|-----------------------|
-----------------------|------------------------|-----------------------|
-----------------------|------------------------|-----------------------|
--4--4-----2-----------|--2--2-------5--5-------|--4--4-----2-----------|
--4--4-----2-----------|--2--2-------5--5-------|--4--4-----2-----------|
--2--2-----0-----------|--0--0-------3--3-------|--2--2-----0-----------|


  E  E  Q    E  E  Q       E  E  E  E  H           E  E  E  E  E  E  E  E   
------------------------|-----------------------|--------------------------|
------------------------|-----------------------|--------------------------|
------------------------|-----------------------|--------------------------|
--2--2-------5--5-------|--4--4-----2-----------|--7--7--7--7--7--7--7--7--|
--2--2-------5--5-------|--4--4-----2-----------|--7--7--7--7--7--7--7--7--|
--0--0-------3--3-------|--2--2-----0-----------|--5--5--5--5--5--5--5--5--|


  E  E  E  E  E  E  E  E     E  E  Q    H           W                 
--------------------------|----------------------|-------------------|
--------------------------|----------------------|-------------------|
--------------------------|----------------------|-------------------|
--7--7--7--7--7--7--7--7--|--2--2----------------|-------------------|
--7--7--7--7--7--7--7--7--|--2--2----------------|-------------------|
--5--5--5--5--5--5--5--5--|--0--0----------------|--0----------------|


  E  E  E  E  E  E  E  E     E  E  E  E  E  E  E  E   
--------------------------|--------------------------|
--------------------------|--------------------------|
--------------------------|--------------------------|
--7--7--7--7--7--7--7--7--|--7--7--7--7--7--7--7--7--|
--7--7--7--7--7--7--7--7--|--7--7--7--7--7--7--7--7--|
--5--5--5--5--5--5--5--5--|--5--5--5--5--5--5--5--5--|


  E  E  E  E  E  E  E  E     E  E  E  E  E  E  E  E   
--0--0--0--0--0--0--0--0--|--2--2--2--2--2--2--2--2--|
--0--0--0--0--0--0--0--0--|--2--2--2--2--2--2--2--2--|
--1--1--1--1--1--1--1--1--|--2--2--2--2--2--2--2--2--|
--2--2--2--2--2--2--2--2--|--4--4--4--4--4--4--4--4--|
--------------------------|--------------------------|
--------------------------|--------------------------|


  E  E  E  E  E  E  E  E     E  E  E  E  E  E  E  E   
--5--5--5--5--5--5--5--5--|--0--0--0--0--0--0--0--0--|
--5--5--5--5--5--5--5--5--|--0--0--0--0--0--0--0--0--|
--6--6--6--6--6--6--6--6--|--1--1--1--1--1--1--1--1--|
--7--7--7--7--7--7--7--7--|--2--2--2--2--2--2--2--2--|
--------------------------|--------------------------|
--------------------------|--------------------------|


  E  E  E  E  E  E  E  E     E  E  E  E  E  E  E  E   
--0--0--0--0--0--0--0--0--|--2--2--2--2--2--2--2--2--|
--0--0--0--0--0--0--0--0--|--2--2--2--2--2--2--2--2--|
--1--1--1--1--1--1--1--1--|--2--2--2--2--2--2--2--2--|
--2--2--2--2--2--2--2--2--|--4--4--4--4--4--4--4--4--|
--------------------------|--------------------------|
--------------------------|--------------------------|


  E  E  E  E  E  E  E  E     E  E  E  E  E  E  E  E     Q    Q    Q    Q     
--5--5--5--5--5--5--5--5--|--0--0--0--0--0--0--0--0--|----------------------|
--5--5--5--5--5--5--5--5--|--0--0--0--0--0--0--0--0--|----------------------|
--6--6--6--6--6--6--6--6--|--1--1--1--1--1--1--1--1--|----------------------|
--7--7--7--7--7--7--7--7--|--2--2--2--2--2--2--2--2--|--2----2----2----2----|
--------------------------|--------------------------|--2----2----2----2----|
--------------------------|--------------------------|--0----0----0----0----|


  Q    Q    Q    Q       Q    Q    Q    Q       Q    Q    Q    Q     
----------------------|----------------------|----------------------|
----------------------|----------------------|----------------------|
----------------------|--2----2----2----2----|----------------------|
--4----4----4----4----|--2----2----2----2----|--2----2----2----2----|
--4----4----4----4----|--0----0----0----0----|--2----2----2----2----|
--2----2----2----2----|----------------------|--0----0----0----0----|


  Q    Q    Q    Q       Q    Q    Q    Q       Q    Q    Q    Q     
----------------------|----------------------|----------------------|
----------------------|----------------------|----------------------|
----------------------|----------------------|--2----2----2----2----|
--2----2----2----2----|--4----4----4----4----|--2----2----2----2----|
--2----2----2----2----|--4----4----4----4----|--0----0----0----0----|
--0----0----0----0----|--2----2----2----2----|----------------------|


  Q    Q    Q    Q       Q    Q    Q    Q       Q    Q    Q    Q     
----------------------|----------------------|----------------------|
----------------------|----------------------|----------------------|
----------------------|----------------------|----------------------|
--2----2----2----2----|--2----2----2----2----|--4----4----4----4----|
--2----2----2----2----|--2----2----2----2----|--4----4----4----4----|
--0----0----0----0----|--0----0----0----0----|--2----2----2----2----|


  Q    Q    Q    Q       Q    Q    Q    Q       Q    Q    Q    Q     
----------------------|----------------------|----------------------|
----------------------|----------------------|----------------------|
--2----2----2----2----|----------------------|----------------------|
--2----2----2----2----|--2----2----2----2----|--2----2----2----2----|
--0----0----0----0----|--2----2----2----2----|--2----2----2----2----|
----------------------|--0----0----0----0----|--0----0----0----0----|


  Q    Q    Q    Q       Q    Q    Q    Q       E  E  Q    E  E  Q     
----------------------|----------------------|------------------------|
----------------------|----------------------|------------------------|
----------------------|--2----2----2----2----|------------------------|
--4----4----4----4----|--2----2----2----2----|--2--2-------5--5-------|
--4----4----4----4----|--0----0----0----0----|--2--2-------5--5-------|
--2----2----2----2----|----------------------|--0--0-------3--3-------|


  E  E  E  E  H           E  E  Q    E  E  Q       E  E  E  E  H         
-----------------------|------------------------|-----------------------|
-----------------------|------------------------|-----------------------|
-----------------------|------------------------|-----------------------|
--4--4-----2-----------|--2--2-------5--5-------|--4--4-----2-----------|
--4--4-----2-----------|--2--2-------5--5-------|--4--4-----2-----------|
--2--2-----0-----------|--0--0-------3--3-------|--2--2-----0-----------|


  E  E  Q    E  E  Q       E  E  E  E  H           E  E  Q    E  E  Q     
------------------------|-----------------------|------------------------|
------------------------|-----------------------|------------------------|
------------------------|-----------------------|------------------------|
--2--2-------5--5-------|--4--4-----2-----------|--2--2-------5--5-------|
--2--2-------5--5-------|--4--4-----2-----------|--2--2-------5--5-------|
--0--0-------3--3-------|--2--2-----0-----------|--0--0-------3--3-------|


  E  E  E  E  H          
-----------------------||
-----------------------||
-----------------------||
--4--4-----2-----------||
--4--4-----2-----------||
--2--2-----0-----------||




================================================================
================================================================



Guitar 2



D#||-------|-------|-------|-------|-------|-------|-------|-------|-------|
A#||-------|-------|-------|-------|-------|-------|-------|-------|-------|
F#||-------|-------|-------|-------|-------|-------|-------|-------|-------|
C#||-------|-------|-------|-------|-------|-------|-------|-------|-------|
G#||-------|-------|-------|-------|-------|-------|-------|-------|-------|
D#||-------|-------|-------|-------|-------|-------|-------|-------|-------|


-------|-------|-------|-------|-------|-------|-------|
-------|-------|-------|-------|-------|-------|-------|
-------|-------|-------|-------|-------|-------|-------|
-------|-------|-------|-------|-------|-------|-------|
-------|-------|-------|-------|-------|-------|-------|
-------|-------|-------|-------|-------|-------|-------|


   E   E   E   E   E   E   E   E      E   E   E   E   E   E   E   E   
----------------------------------|----------------------------------|
--15--14--15--14--15--14--15--14--|--15--14--15--14--15--14--15--14--|
--14--14--14--14--14--14--14--14--|--14--14--14--14--14--14--14--14--|
--14--14--14--14--14--14--14--14--|--14--14--14--14--14--14--14--14--|
----------------------------------|----------------------------------|
----------------------------------|----------------------------------|


   E   E  H        Q                E   E   E   E   E   E   E   E   
------------------------|-------|----------------------------------|
------------------------|-------|--15--14--15--14--15--14--15--14--|
------------------------|-------|--14--14--14--14--14--14--14--14--|
--14--14----------------|-------|--14--14--14--14--14--14--14--14--|
--14--14----------------|-------|----------------------------------|
------------------------|-------|----------------------------------|


   E   E   E   E   E   E   E   E     E  E  E  E  E  E  E  E   
----------------------------------|--7--7--7--7--7--7--7--7--|
--15--14--15--14--15--14--15--14--|--7--9--9--7--9--9--7--9--|
--14--14--14--14--14--14--14--14--|--9--9--9--9--9--9--9--9--|
--14--14--14--14--14--14--14--14--|--------------------------|
----------------------------------|--------------------------|
----------------------------------|--------------------------|


  E   E   E  E   E   E  E   E      E   E   E   E   E   E  E   E   
-------------------------------|---------------------------------|
--9--10--10--9--10--10--9--12--|--10--10--12--10--12--10--9--10--|
--9---9---9--9---9---9--9---9--|---9---9---9---9---9---9--9---9--|
-------------------------------|---------------------------------|
-------------------------------|---------------------------------|
-------------------------------|---------------------------------|


  E  E  E  E  E  E  E  E     E  E  E  E  E  E  E  E   
--0--0--0--0--0--0--0--0--|--7--7--7--7--7--7--7--7--|
--7--7--7--5--5--5--4--5--|--7--9--9--7--9--9--7--9--|
--------------------------|--9--9--9--9--9--9--9--9--|
--------------------------|--------------------------|
--------------------------|--------------------------|
--------------------------|--------------------------|


  E   E   E  E   E   E  E   E      E   E   E   E   E   E  E   E   
-------------------------------|---------------------------------|
--9--10--10--9--10--10--9--12--|--10--10--12--10--12--10--9--10--|
--9---9---9--9---9---9--9---9--|---9---9---9---9---9---9--9---9--|
-------------------------------|---------------------------------|
-------------------------------|---------------------------------|
-------------------------------|---------------------------------|


  E  E  Q     E   E  Q        E   E  E  E  H           E  E  Q     E   E  Q     
--------------------------|-------------------------|--------------------------|
--------------------------|-------------------------|--------------------------|
--9--9-------12--12-------|--11--11-----9-----------|--9--9-------12--12-------|
--------------------------|-------------------------|--------------------------|
--------------------------|-------------------------|--------------------------|
--------------------------|-------------------------|--------------------------|


   E   E  E  E  H                                                         
-------------------------|-------|-------|-------|-------|-------|-------|
-------------------------|-------|-------|-------|-------|-------|-------|
--11--11-----9-----------|-------|-------|-------|-------|-------|-------|
-------------------------|-------|-------|-------|-------|-------|-------|
-------------------------|-------|-------|-------|-------|-------|-------|
-------------------------|-------|-------|-------|-------|-------|-------|


                   E   E   E   E   E   E   E   E   
-------|-------|----------------------------------|
-------|-------|--15--14--15--14--15--14--15--14--|
-------|-------|--14--14--14--14--14--14--14--14--|
-------|-------|--14--14--14--14--14--14--14--14--|
-------|-------|----------------------------------|
-------|-------|----------------------------------|


   E   E   E   E   E   E   E   E      E   E  H        Q             
----------------------------------|------------------------|-------|
--15--14--15--14--15--14--15--14--|------------------------|-------|
--14--14--14--14--14--14--14--14--|------------------------|-------|
--14--14--14--14--14--14--14--14--|--14--14----------------|-------|
----------------------------------|--14--14----------------|-------|
----------------------------------|------------------------|-------|


   E   E   E   E   E   E   E   E      E   E   E   E   E   E   E   E   
----------------------------------|----------------------------------|
--15--14--15--14--15--14--15--14--|--15--14--15--14--15--14--15--14--|
--14--14--14--14--14--14--14--14--|--14--14--14--14--14--14--14--14--|
--14--14--14--14--14--14--14--14--|--14--14--14--14--14--14--14--14--|
----------------------------------|----------------------------------|
----------------------------------|----------------------------------|


  E  E  E  E  E  E  E  E     E   E   E  E   E   E  E   E   
--7--7--7--7--7--7--7--7--|-------------------------------|
--7--9--9--7--9--9--7--9--|--9--10--10--9--10--10--9--12--|
--9--9--9--9--9--9--9--9--|--9---9---9--9---9---9--9---9--|
--------------------------|-------------------------------|
--------------------------|-------------------------------|
--------------------------|-------------------------------|


   E   E   E   E   E   E  E   E     E  E  E  E  E  E  E  E   
---------------------------------|--0--0--0--0--0--0--0--0--|
--10--10--12--10--12--10--9--10--|--7--7--7--5--5--5--4--5--|
---9---9---9---9---9---9--9---9--|--------------------------|
---------------------------------|--------------------------|
---------------------------------|--------------------------|
---------------------------------|--------------------------|


  E  E  E  E  E  E  E  E     E   E   E  E   E   E  E   E   
--7--7--7--7--7--7--7--7--|-------------------------------|
--7--9--9--7--9--9--7--9--|--9--10--10--9--10--10--9--12--|
--9--9--9--9--9--9--9--9--|--9---9---9--9---9---9--9---9--|
--------------------------|-------------------------------|
--------------------------|-------------------------------|
--------------------------|-------------------------------|


                                                      |-3-|     
   E   E   E   E   E   E  E   E     E  E  E  E  E  E  S S S E   
---------------------------------|--0--0--0--0--0--0--0-0-0-0--|
--10--10--12--10--12--10--9--10--|--7--7--7--5--5--5--4-4-4-5--|
---9---9---9---9---9---9--9---9--|-----------------------------|
---------------------------------|-----------------------------|
---------------------------------|-----------------------------|
---------------------------------|-----------------------------|


   E   E  E   Q     Q    E     E   E  H.            
--12--11--9-----------------|----------------------|
-------------12----10----9--|--L--10---------------|
----------------------------|---------9------------|
----------------------------|----------------------|
----------------------------|----------------------|
----------------------------|----------------------|


   E   E  E   Q    Q     E      W                    E   E  E   Q     Q    E   
--12--11--9--------9--------|--------------------|--12--11--9-----------------|
-------------12---------12--|---L----------------|-------------12----10----9--|
----------------------------|--------------------|----------------------------|
----------------------------|--------------------|----------------------------|
----------------------------|--------------------|----------------------------|
----------------------------|--------------------|----------------------------|


  E   E  H.               E   E  E   Q     Q    E     W                 
----------------------|--12--11--9-----------------|-------------------|
--L--10---------------|-------------12----10----9--|--L----------------|
---------9------------|----------------------------|-------------------|
----------------------|----------------------------|-------------------|
----------------------|----------------------------|-------------------|
----------------------|----------------------------|-------------------|


   E  E   E  E   E  E   E  E      E  E   E  E   E  E   E  E   
------------------------------|------------------------------|
--12-----12-----12-----12-----|--12-----12-----12-----12-----|
---9------9------9------9-----|---9------9------9------9-----|
------------------------------|------------------------------|
------------------------------|------------------------------|
------------------------------|------------------------------|


  E  E  S S S S E  E  S S S S    E  E  S S S S E  E  S S S S  
------------------------------|------------------------------|
------------------------------|------------------------------|
------------------------------|------------------------------|
------------------------------|------------------------------|
------------------------------|------------------------------|
--0--0--0-0-0-0-0--0--0-0-0-0-|--0--0--0-0-0-0-0--0--0-0-0-0-|


   E  E   E  E   E  E   E  E      E  E   E  E   E  E   E  E                     
------------------------------|------------------------------|-----|-----|-----|
--12-----12-----12-----12-----|--12-----12-----12-----12-----|-----|-----|-----|
---9------9------9------9-----|---9------9------9------9-----|-----|-----|-----|
------------------------------|------------------------------|-----|-----|-----|
------------------------------|------------------------------|-----|-----|-----|
------------------------------|------------------------------|-----|-----|-----|


                                 E   E   E   E   E   E   E   E   
-----|-----|-----|-----|-----|----------------------------------|
-----|-----|-----|-----|-----|--15--14--15--14--15--14--15--14--|
-----|-----|-----|-----|-----|--14--14--14--14--14--14--14--14--|
-----|-----|-----|-----|-----|--14--14--14--14--14--14--14--14--|
-----|-----|-----|-----|-----|----------------------------------|
-----|-----|-----|-----|-----|----------------------------------|


                                             PM PM PM PM PM PM  
   E   E   E   E   E   E   E   E      E   E  E  E  E  E  E  E   
----------------------------------|----------------------------|
--15--14--15--14--15--14--15--14--|----------------------------|
--14--14--14--14--14--14--14--14--|----------------------------|
--14--14--14--14--14--14--14--14--|--14--14--------------------|
----------------------------------|--14--14--------------------|
----------------------------------|----------0--0--0--0--0--0--|


  PM PM PM PM PM PM PM PM                                     
  E  E  E  E  E  E  E  E      E   E   E   E   E   E   E   E   
--------------------------|----------------------------------|
--------------------------|--15--14--15--14--15--14--15--14--|
--------------------------|--14--14--14--14--14--14--14--14--|
--------------------------|--14--14--14--14--14--14--14--14--|
--------------------------|----------------------------------|
--0--0--0--0--0--0--0--0--|----------------------------------|


   E   E   E   E   E   E   E   E                                           
----------------------------------|-------|-------|-------|-------|-------|
--15--14--15--14--15--14--15--14--|-------|-------|-------|-------|-------|
--14--14--14--14--14--14--14--14--|-------|-------|-------|-------|-------|
--14--14--14--14--14--14--14--14--|-------|-------|-------|-------|-------|
----------------------------------|-------|-------|-------|-------|-------|
----------------------------------|-------|-------|-------|-------|-------|


                          E  E  E  E  E  E  E  E   
-------|-------|-------|--7--7--7--7--7--7--7--7--|
-------|-------|-------|--7--9--9--7--9--9--7--9--|
-------|-------|-------|--9--9--9--9--9--9--9--9--|
-------|-------|-------|--------------------------|
-------|-------|-------|--------------------------|
-------|-------|-------|--------------------------|


  E   E   E  E   E   E  E   E      E   E   E   E   E   E  E   E   
-------------------------------|---------------------------------|
--9--10--10--9--10--10--9--12--|--10--10--12--10--12--10--9--10--|
--9---9---9--9---9---9--9---9--|---9---9---9---9---9---9--9---9--|
-------------------------------|---------------------------------|
-------------------------------|---------------------------------|
-------------------------------|---------------------------------|


  E  E  E  E  E  E  E  E     E  E  E  E  E  E  E  E   
--0--0--0--0--0--0--0--0--|--7--7--7--7--7--7--7--7--|
--7--7--7--5--5--5--4--5--|--7--9--9--7--9--9--7--9--|
--------------------------|--9--9--9--9--9--9--9--9--|
--------------------------|--------------------------|
--------------------------|--------------------------|
--------------------------|--------------------------|


  E   E   E  E   E   E  E   E      E   E   E   E   E   E  E   E   
-------------------------------|---------------------------------|
--9--10--10--9--10--10--9--12--|--10--10--12--10--12--10--9--10--|
--9---9---9--9---9---9--9---9--|---9---9---9---9---9---9--9---9--|
-------------------------------|---------------------------------|
-------------------------------|---------------------------------|
-------------------------------|---------------------------------|


  E  E  E   S  S  S  S  S  S  S  S  S  S     W                 
-----------17-16-------------------------|--------------------|
-----------------17-16-14----------------|--------------------|
--9--9--9-----------------16-14-13-------|--------------------|
-----------------------------------16-14-|---L----------------|
-----------------------------------------|--------------------|
-----------------------------------------|--------------------|


   W                    E   E   E   E   E   E  E   E   
--------------------|---------------------------------|
--------------------|--10--10--12--10--12--10--9--10--|
--------------------|---9---9---9---9---9---9--9---9--|
---L----------------|---------------------------------|
--------------------|---------------------------------|
--------------------|---------------------------------|


  E  E  E  E  E  E  E  E     E  E  E  E  E  E  E  E   
--0--0--0--0--0--0--0--0--|--7--7--7--7--7--7--7--7--|
--7--7--7--5--5--5--4--5--|--7--9--9--7--9--9--7--9--|
--------------------------|--9--9--9--9--9--9--9--9--|
--------------------------|--------------------------|
--------------------------|--------------------------|
--------------------------|--------------------------|


  E   E   E  E   E   E  E   E      E   E   E   E   E   E  E   E   
-------------------------------|---------------------------------|
--9--10--10--9--10--10--9--12--|--10--10--12--10--12--10--9--10--|
--9---9---9--9---9---9--9---9--|---9---9---9---9---9---9--9---9--|
-------------------------------|---------------------------------|
-------------------------------|---------------------------------|
-------------------------------|---------------------------------|


  E  E  Q     E   E  Q        E   E  E  E  H           E  E  Q     E   E  Q     
--------------------------|-------------------------|--------------------------|
--------------------------|-------------------------|--------------------------|
--9--9-------12--12-------|--11--11-----9-----------|--9--9-------12--12-------|
--------------------------|-------------------------|--------------------------|
--------------------------|-------------------------|--------------------------|
--------------------------|-------------------------|--------------------------|


   E   E  E  E  H           E  E  E  E  E  E  E  E     E  E  E  E  H         
-------------------------|--0--0--0--0--0--0--0--0--|--0--0--0--0-----------|
-------------------------|--------------------------|-----------------------|
--11--11-----9-----------|--------------------------|-----------------------|
-------------------------|--------------------------|-----------------------|
-------------------------|--------------------------|-----------------------|
-------------------------|--------------------------|-----------------------|


  E  E  E  E  E  E  E  E     E  E  E  E  H          
--0--0--0--0--0--0--0--0--|--0--0--0--0-----------||
--5--5--5--5--3--3--3--3--|--2--2--2--0-----------||
--------------------------|-----------------------||
--------------------------|-----------------------||
--------------------------|-----------------------||
--------------------------|-----------------------||




================================================================
================================================================




Solo



D#||-------|-------|-------|-------|-------|-------|-------|-------|-------|
A#||-------|-------|-------|-------|-------|-------|-------|-------|-------|
F#||-------|-------|-------|-------|-------|-------|-------|-------|-------|
C#||-------|-------|-------|-------|-------|-------|-------|-------|-------|
G#||-------|-------|-------|-------|-------|-------|-------|-------|-------|
D#||-------|-------|-------|-------|-------|-------|-------|-------|-------|


-------|-------|-------|-------|-------|-------|-------|-------|-------|-------|
-------|-------|-------|-------|-------|-------|-------|-------|-------|-------|
-------|-------|-------|-------|-------|-------|-------|-------|-------|-------|
-------|-------|-------|-------|-------|-------|-------|-------|-------|-------|
-------|-------|-------|-------|-------|-------|-------|-------|-------|-------|
-------|-------|-------|-------|-------|-------|-------|-------|-------|-------|


-------|-------|-------|-------|-------|-------|-------|-------|-------|-------|
-------|-------|-------|-------|-------|-------|-------|-------|-------|-------|
-------|-------|-------|-------|-------|-------|-------|-------|-------|-------|
-------|-------|-------|-------|-------|-------|-------|-------|-------|-------|
-------|-------|-------|-------|-------|-------|-------|-------|-------|-------|
-------|-------|-------|-------|-------|-------|-------|-------|-------|-------|


-------|-------|-------|-------|-------|-------|-------|-------|-------|-------|
-------|-------|-------|-------|-------|-------|-------|-------|-------|-------|
-------|-------|-------|-------|-------|-------|-------|-------|-------|-------|
-------|-------|-------|-------|-------|-------|-------|-------|-------|-------|
-------|-------|-------|-------|-------|-------|-------|-------|-------|-------|
-------|-------|-------|-------|-------|-------|-------|-------|-------|-------|


-------|-------|-------|-------|-------|-------|-------|-------|-------|-------|
-------|-------|-------|-------|-------|-------|-------|-------|-------|-------|
-------|-------|-------|-------|-------|-------|-------|-------|-------|-------|
-------|-------|-------|-------|-------|-------|-------|-------|-------|-------|
-------|-------|-------|-------|-------|-------|-------|-------|-------|-------|
-------|-------|-------|-------|-------|-------|-------|-------|-------|-------|


-------|-------|-------|-------|-------|-------|-------|-------|-------|-------|
-------|-------|-------|-------|-------|-------|-------|-------|-------|-------|
-------|-------|-------|-------|-------|-------|-------|-------|-------|-------|
-------|-------|-------|-------|-------|-------|-------|-------|-------|-------|
-------|-------|-------|-------|-------|-------|-------|-------|-------|-------|
-------|-------|-------|-------|-------|-------|-------|-------|-------|-------|


-------|-------|-------|-------|-------|-------|-------|-------|-------|-------|
-------|-------|-------|-------|-------|-------|-------|-------|-------|-------|
-------|-------|-------|-------|-------|-------|-------|-------|-------|-------|
-------|-------|-------|-------|-------|-------|-------|-------|-------|-------|
-------|-------|-------|-------|-------|-------|-------|-------|-------|-------|
-------|-------|-------|-------|-------|-------|-------|-------|-------|-------|


   \1/        \1/           \1/       \1/                                       
   Q    Q     Q    Q        Q    Q    H           E  S S S S Q     E   S S E    
------------------------|----------------------|-----------5-------------------|
--14---------12---------|--10---------9--------|-------5-8---8b----8\----5-----|
------------------------|----------------------|-----7-----------------7---7b--|
------------------------|----------------------|-------------------------------|
------------------------|----------------------|-------------------------------|
------------------------|----------------------|-------------------------------|


  E     Q    S S H             S  S  S  S  S  S  E   S  S  S  S  E   S  S  
---------------------------|--12-10-12-10-12-12-12--14-12-12-12-12-----12-|
---------------------------|--12----12----12-12-12-----12-12-12-----15----|
--Lpbr--7------------------|----------------------------------------------|
-------------5-7-5b--------|----------------------------------------------|
---------------------------|----------------------------------------------|
---------------------------|----------------------------------------------|


   S  S  S  S  Q      Q.      E   
--15-12----12-15b----15b---------|
--------15-----------------------|
---------------------------------|
---------------------------------|
---------------------------------|
---------------------------------|


   S  S  S  S  S  S  S  S  S  S  S  S  S  S  S  S  
--------------------------------12-10-------------|
--13-12-11-12-12-11-10-11-11-10-------11-10----10-|
--------------------------------------------12----|
--------------------------------------------------|
--------------------------------------------------|
--------------------------------------------------|


   S  S  S  S  S  S E  Q     Q       W                    H          H          
----------------------------------|--------------------|-----------------------|
--11-10----10---------------------|--5-----------------|--7----------8---------|
--------12----12-11-9--L\---------|--7b----------------|--9b--------10b--------|
----------------------------------|--------------------|-----------------------|
----------------------------------|--------------------|-----------------------|
----------------------------------|--------------------|-----------------------|


   W                     Q       H          E.  S  
---------------------|----------------------------|
---------------------|-----------xs---------x-----|
--12b----------------|---Lpb-----xs---------x-----|
---------------------|----------21s--------12-----|
---------------------|--------------------------x-|
---------------------|----------------------------|


   TP  TP  TP  TP  TP  TP  TP  TP     TP  TP  TP  TP  TP  TP  TP  TP  
   E   E   E   E   E   E   E   E      E   E   E   E   E   E   E   E   
----------------------------------|----------------------------------|
--15--14--15--14--15--14--15--14--|--15--14--15--14--15--14--15--14--|
----------------------------------|----------------------------------|
----------------------------------|----------------------------------|
----------------------------------|----------------------------------|
----------------------------------|----------------------------------|


   W                     W                                                   
---------------------|----------------------|-------|-------|-------|-------|
--15b----------------|---Lpb----------------|-------|-------|-------|-------|
---------------------|----------------------|-------|-------|-------|-------|
---------------------|----------------------|-------|-------|-------|-------|
---------------------|----------------------|-------|-------|-------|-------|
---------------------|----------------------|-------|-------|-------|-------|


-------|-------|-------|-------|-------|-------|-------|-------|-------|
-------|-------|-------|-------|-------|-------|-------|-------|-------|
-------|-------|-------|-------|-------|-------|-------|-------|-------|
-------|-------|-------|-------|-------|-------|-------|-------|-------|
-------|-------|-------|-------|-------|-------|-------|-------|-------|
-------|-------|-------|-------|-------|-------|-------|-------|-------|


  E  E  E   S  S  S  S  S  S  S  S  S  S     E   E  E   Q     Q    E   
--0--0--0--------------------------------|--12--11--9-----------------|
-----------------------------------------|-------------12----10----9--|
-----------14-13-------------------------|----------------------------|
-----------------14-13-11----------------|----------------------------|
--------------------------14-12-11-------|----------------------------|
-----------------------------------14-12-|----------------------------|


  E   Q    E   Q    E   E      E   E  E   Q    Q     E      W                 
---------------------------|--12--11--9--------9--------|--------------------|
--9--10----9--10----9--10--|-------------12---------12--|---L----------------|
---------------------------|----------------------------|--------------------|
---------------------------|----------------------------|--------------------|
---------------------------|----------------------------|--------------------|
---------------------------|----------------------------|--------------------|


   E   E  E   Q     Q    E     E   E  H.            
--12--11--9-----------------|----------------------|
-------------12----10----9--|--L--10---------------|
----------------------------|---------9------------|
----------------------------|----------------------|
----------------------------|----------------------|
----------------------------|----------------------|


   E   E  E   Q     Q    E     E  E  Q    E  E  Q       E  E  E  E  Q    Q     
--12--11--9-----------------|--0--0-------3--3-------|--2--2-----0------------|
-------------12----10----9--|------------------------|------------------------|
----------------------------|------------------------|------------------------|
----------------------------|------------------------|------------------------|
----------------------------|------------------------|------------------------|
----------------------------|------------------------|------------------------|


  E  E  Q    E  E  Q       E  E  E  E  H           E  E  Q    E  E  Q     
--0--0-------3--3-------|--2--2-----0-----------|--0--0-------3--3-------|
------------------------|-----------------------|------------------------|
------------------------|-----------------------|------------------------|
------------------------|-----------------------|------------------------|
------------------------|-----------------------|------------------------|
------------------------|-----------------------|------------------------|


  E  E  E  E  H           E  E  Q    E  E  Q       E  E  E  E  H          
--2--2-----0-----------|--0--0-------3--3-------|--2--2-----0-----------||
-----------------------|------------------------|-----------------------||
-----------------------|------------------------|-----------------------||
-----------------------|------------------------|-----------------------||
-----------------------|------------------------|-----------------------||
-----------------------|------------------------|-----------------------||




Duration Legend
---------------
W - whole
H - half
Q - quarter
E - 8th
S - 16th
T - 32nd
X - 64th
. - note dotted
|-n-|  - n-tuplets


Tablature Legend
----------------
L - tied note
x - dead note
g - grace note
(n) - ghost note
> - accentuded note
NH - natural harmonic
AH - artificial harmonic
TH - tapped harmonic
SH - semi harmonic
PH - pitch harmonic
h - hammer on
p - pull off
b - bend
br - bendRelease
pb - preBend
pbr - preBendRelease
brb - bendReleaseBend
\n/ - tremolo bar dip
\n - tremolo bar dive
-/n - tremolo bar Release up
/n\ - tremolo bar inverted dip
/n - tremolo bar return
-\n - tremolo bar Release down
S - shift slide
s - legato slide
/ -  slide into from below or out of upwards
\ -  slide into from above or out of downwards
~ - vibrato
W - wide vibrato
tr - trill
TP - tremolo picking
T - tapping
S - slap
P - pop
< - fade in
^ - brush up
v - brush down





Comments


Popular Collective Soul tabs & chords
Perfect Day  Chords
Turn Around  Chords
Counting The Days 1 Tabs
Dandy Life Tabs
December Tabs
December Complete Tabs
Man Without Skin Ukulele
Satellite 2 Ukulele
Shine 2 Ukulele
Sister Dont Cry Ukulele


Song lyrics



↑ Back to top | Tablatures and chords are parodies/interpretations of the original songs. You may use it for private study, scholarship, research or language learning purposes only
© 2014 AZChords.com Contact us | Privacy policy | DMCA | Add/correct tabs | Request tabs | Top 50 tabs